Jimmy Eat World - 23 Chords & Tabs

 

23 Chords & Tabs

Jimmy Eat World Chords & Tabs

Version: 2 Type: Tab

23 Tab

   
----------------------------------------------------------------------------
			     23 - Jimmy Eat World
----------------------------------------------------------------------------
Tabbed by:sunvic
Email:sunvic@hotmail.com

Tuning:Standard

Just Note I've Been Lazy And Number Of Notes is Not Always Correct
Also For People Who Get Annoyed At Reading Tabbers Notes, Don't Bother With Reading Mine

For Two Guitars
Guitar 1=G1
Guitar 2=G2

1st Part Intro X2

Guitar 1
e|-------------------0----------------------0----------------------0-------|
B|------------------3----------------------3-3--------------------3--------|
G|-------------------------------------------------------------------------|
D|-------------------------------------------------------------------------|
A|-------------------------------------------------------------------------|
E|-------------------------------------------------------------------------|

Guitar 2
e|-------------------------------------------------------------------------|
B|-------3----3-----3------------------------------------------------------|
G|-------2----2-----2-----------2----2-----2-----------2----2-----2--------|
D|-------0----0-----0-----------2----2-----2-----------0----0-----0--------|
A|--2222---22---222---222--0000---00---000---000---------------------------|
E|------------------------------------------------2222---22---222---222----|

G1
e|-------------------0-----------------------------------------------------|
B|------------------3-3----------------------------------------------------|
G|-------------------------------------------------------------------------|
D|-------------------------------------------------------------------------|
A|-------------------------------------------------------------------------|
E|-------------------------------------------------------------------------|

G2
e|-------------------------------------------------------------------------|
B|-------------------------------------------------------------------------|
G|-------2----2-----2------------------------------------------------------|
D|-------0----0-----0------------------------------------------------------|
A|-------------------------------------------------------------------------|
E|--3333---33---333---333--------------------------------------------------|

2nd Part Intro X2 (gonna be lazy here - number of notes doesn't correspond to song for G2)

G1                                                              (On2ndTime)
e|----------------0--------------0--------------0--------------0---(0)-----|
B|---------------3--------------3--------------3--------------3--(3)-------|
G|-------------------------------------------------------------------------|
D|-------------------------------------------------------------------------|
A|-------------------------------------------------------------------------|
E|-------------------------------------------------------------------------|

G2 (Tremelo Pick-just pick fast,flick plectrum back and forth across string)
e|-------------------------------------------------------------------------|
B|--17-17-17-17-17-14-14-14-14-14-15-15-15-15-15-17-15-15-15h17-15---------|
G|-------------------------------------------------------------------------|
D|-------------------------------------------------------------------------|
A|-------------------------------------------------------------------------|
E|-------------------------------------------------------------------------|

3rd Part Intro (where G1's part is actually fun)

G1
e|-----------555555555-----------33333333--2222222200555222222222200-------|
B|--000222333-----------000222333-----------------------------------33-2222|
G|-------------------------------------------------------------------------|
D|-------------------------------------------------------------------------|
A|-------------------------------------------------------------------------|
E|-------------------------------------------------------------------------|

G2
Continue Tremelo Picking Over

G1
e|-----------555555555-----------33333333--2222222200555222222222200-------|
B|--000222333-----------000222333-----------------------------------33-2b--|
G|-------------------------------------------------------------------------|
D|-------------------------------------------------------------------------|
A|-------------------------------------------------------------------------|
E|-------------------------------------------------------------------------|

Intro Over

Play 1st Part Into Again (Once)

He starts Singing on last few notes

Play 1st Part Intro Again (Three Times)

Play 2nd Part Intro Again

(Some Effect - Don't Know What - Haven't Got The Equipment To Find Out)
(Also This Part Is A Rough Guess)

G1 X4
e|--2--2--2--2--0--0--0--0--2--2--2--2--3--3--3--3-------------------------|
B|---3--3--3--3--3--3--3--3--3--3--3--3--3--3--3--3------------------------|
G|-------------------------------------------------------------------------|
D|-------------------------------------------------------------------------|
A|-------------------------------------------------------------------------|
E|-------------------------------------------------------------------------|
[ Tab from: http://www.guitartabs.cc/tabs/j/jimmy_eat_world/23_tab_ver_2.html ]
G2 X4 (Play G1 3rd Part Intro Though Needs To Be Quiet)
       (Could Play 1st Part Intro)

G1
e|-----------555555555-----------33333333--2222222200555222222222200-------|
B|--000222333-----------000222333-----------------------------------33-2222|
G|-------------------------------------------------------------------------|
D|-------------------------------------------------------------------------|
A|-------------------------------------------------------------------------|
E|-------------------------------------------------------------------------|

G2
Continue Tremelo Picking Over

G1
e|-----------555555555-----------33333333--2222222200555222222222200-------|
B|--000222333-----------000222333-----------------------------------33-2b--|
G|-------------------------------------------------------------------------|
D|-------------------------------------------------------------------------|
A|-------------------------------------------------------------------------|
E|-------------------------------------------------------------------------|


G1 X4
e|--2--2--2--2--0--0--0--0--2--2--2--2--3--3--3--3-------------------------|
B|---3--3--3--3--3--3--3--3--3--3--3--3--3--3--3--3------------------------|
G|-------------------------------------------------------------------------|
D|-------------------------------------------------------------------------|
A|-------------------------------------------------------------------------|
E|-------------------------------------------------------------------------|

G2 X4 (Play G1 3rd Part Intro Though Needs To Be Quiet)
       (Could Play 1st Part Intro)

Solo

G1 (Only)(G2 On Lower Notes)
e|--------------------------------------10----10--10-----------------------|
B|--151515-141414-121212-101010--8s7-7h8---7h8---7----7s15-----------------|
G|-------------------------------------------------------------------------|
D|-------------------------------------------------------------------------|
A|-------------------------------------------------------------------------|
E|-------------------------------------------------------------------------|

e|-------------------------------------------------------------------------|
B|--151515-141414-121212-101010--8s7-7h8p7---------------------------------|
G|-----------------------------------------9---9b--------------------------|
D|-------------------------------------------------------------------------|
A|-------------------------------------------------------------------------|
E|-------------------------------------------------------------------------|

e|-----------------------17171717171717----------------------17171717171717|
B|--171717-191919-151515----------------171717-191919-151515---------------|
G|-------------------------------------------------------------------------|
D|-------------------------------------------------------------------------|
A|-------------------------------------------------------------------------|
E|-------------------------------------------------------------------------|

e|--17-15-1414--17-15-1414--17-15-14h15p14-----17-15-14h15p14--------------|
B|-----------------------------------------17-----------------17-----------|
G|-------------------------------------------------------------------------|
D|-------------------------------------------------------------------------|
A|-------------------------------------------------------------------------|
E|-------------------------------------------------------------------------|

e|-----------------------------------17----17----17----17------171514------|
B|--17b(18)r17--15151515151515---1415--1415--1415--1415----1415------------|
G|-------------------------------------------------------------------------|
D|-------------------------------------------------------------------------|
A|-------------------------------------------------------------------------|
E|-------------------------------------------------------------------------|

Solo End

G1(Silent Or Same As G2)

G2(Repaeat)
e|--222222222222222220000000000000-----------------------------------------|
B|--------------------------------33333333333333333333333333333333---------|
G|-------------------------------------------------------------------------|
D|-------------------------------------------------------------------------|
A|-------------------------------------------------------------------------|
E|-------------------------------------------------------------------------|

G1
e|--2-2-2-23-2-2-2-23-2-2-2-2-2-2-2---5-5-5-5--5-5-5-5--5-5-5-5------------|
B|---3-3-3----3-3-3----3-3-3-3-3-3-3---------------------------------------|
G|-------------------------------------7-7-7-7--7-7-7-7--7-7-7-7-----------|
D|-------------------------------------------------------------------------|
A|-------------------------------------------------------------------------|
E|-------------------------------------------------------------------------|

G1(Fade)(Repeat)
e|-------------------0----------------------0----------------------0-------|
B|------------------3----------------------3-3--------------------3--------|
G|-------------------------------------------------------------------------|
D|-------------------------------------------------------------------------|
A|-------------------------------------------------------------------------|
E|-------------------------------------------------------------------------|


Rate Me