Jimmies Chicken Shack - Spiderweb Chords & Tabs

 

Spiderweb Chords & Tabs

Jimmies Chicken Shack Chords & Tabs

Version: 2 Type: Bass Tab 0 ratings
1 star 2 stars 3 stars 4 stars 5 stars
comments

Spiderweb Bass Tab

Spiderweb - Jimmie's Chicken Shack
Bass tab
Tabbed by Asbestos Man (asbestos_man_@hotmail.com)

Having a 5-string isn't completely necessary.
This tab is pretty far off in places. Deal with it.

Intro                                               T
G|-------7---------------------7--------------------------|
D|-----6-------6-------------6-------6--------------------|
A|---7-----6-7---7---8-----7-----6-7---7---6*-------15\---|
E|-0---------------0-----0---------------0----------------|
B|--------------------------------------------------------|
   *occasionally don't play this note
   Play the 15\ the last time


Verse + Fills (you'll have to figure out the order)
                                                    PT T
G|------------------|-----------------|-------------X-----|
D|------------------|-----------------|-------------------|
A|----------------8-|---------------6-|--------------X-8^-|
E|-0--0-0--0-0------|-0--0-0--0-0-----|-0--0-0--0-0-------|
B|-------------4----|-------------4---|-------------------|

[ Tab from: http://www.guitartabs.cc/tabs/j/jimmies_chicken_shack/spiderweb_btab_ver_2.html ]
That little fill
   P T
G|--------------------------------------------------------|
D|--------------------------------------------------------|
A|-7------------------------------------------------------|
E|---0----------------------------------------------------|
B|--------------------------------------------------------|


Chorus
G|--------------------------------------------------------|
D|--------------------------------------------------------|
A|--------------------------------------------------------|
E|-0-0---5-5---8--4-4---9-9--0h2--------------------------|
B|--------------------------------------------------------|


Coda
G|----------------------------------------------|---------|
D|----------------------------------------------|---------|
A|----------------------------------------------|---------|
E|-0-0-0-0--5-5-5-5--4/8--4-4-4-4--9-9-9-9--0h2-|---------|
B|----------------------------------------------|---------|

                        T  T T T
G|-------------------|------------------------------------|
D|-------------------|------------------------------------|
A|-------0-3-5-3~-2--|------------------------------------|
E|-0-2-4-------------|--0--2-3-7^-------------------------|
B|-------------------|------------------------------------|

PLEASE send feedback/corrections to asbestos_man_@hotmail.com
Comments