Jimmies Chicken Shack - School Bus Chords & Tabs

 

School Bus Chords & Tabs

Jimmies Chicken Shack Chords & Tabs

Version: 2 Type: Bass Tab 0 ratings
1 star 2 stars 3 stars 4 stars 5 stars
comments

School Bus Bass Tab

School Bus - Jimmie's Chicken Shack
Bass Tab
Tabbed by Asbestos Man (asbestos_man_@hotmail.com)

A 5-string isn't essential to play this, you can change bits.

Intro + bridge
G|--------------------------------------------------------|
D|--------------------------------------------------------|
A|---3-4---3-4---3-4-5*-----------------------------------|
E|-2-----1-----2------------------------------------------|
B|--------------------------------------------------------|
   *don't play this the last time


Main Riff
   T T T T   P T P  P T
G|-----------2---X--X-------------------------------------|
D|--------------------------------------------------------|
A|----------------------------4-4-4-3-3-2-0---------------|
E|-2-2-2-0h2---X------12\---2-----------------------------|
B|--------------------------------------------------------|

[ Tab from: http://www.guitartabs.cc/tabs/j/jimmies_chicken_shack/school_bus_btab_ver_2.html ]
Bridge 2
G|----------------------2-4-2-----------------------------|
D|----------------2--4--------4p2-------------------------|
A|----0--2--3--4------------------4p0---------------------|
E|-2------------------------------------------------------|
B|--------------------------------------------------------|


Guitar Solos part
This is pretty damn close.
G|--------------------------------------------------------|
D|-----2-----------------------2-------------------0------|
A|---------------5----------------4-4-4-5---0h2--2--------|
E|-0------4-4-5-------------0-----------------------------|
B|------------------3--4----------------------------------|

G|--------------------------------------------------------|
D|-----2-----------------------2--------------------------|
A|---------------5----------------4-4-4-5---0-2-----------|
E|-0------4-4-5-------------0-------------------3---------|
B|------------------3--4----------------------------------|
Play the first riff the 1sty and 3rd time and the second
riff the 2nd and 4th time.


Breakdown
G|--------------------------------------------------------|
D|--------------------------------------------------------|
A|--------------------------------------------------------|
E|-2-0-2-0-2-0-2/5---5-3-5-3-5-3-5/8----------------------|
B|--------------------------------------------------------|

PLEASE send any feedback/corrections (especially for the
guitar solos part) to asbestos_man_@hotmail.com
Comments