Jimmies Chicken Shack - Milk Chords & Tabs

 

Milk Chords & Tabs

Jimmies Chicken Shack Chords & Tabs

Version: 2 Type: Bass Tab 0 ratings
1 star 2 stars 3 stars 4 stars 5 stars
comments

Milk Bass Tab

Milk - Jimmie's Chicken Shack
Bass tab
Tabbed by Asbestos Man (asbestos_man_@hotmail.com)

First it goes
E|-3/12\3-------------------------------------------------|


Main riff (there's some variations)
G|---------------|--------------------|---------------------|
D|---------------|--------------------|---------------------|
A|---------------|--------------------|---------------------|
E|-2-2--2-2--0-5-|-2-2---2-2--0-2-0-5-|-2-2-2-2-2-2-0-2-0-5-|

I beleive it goes like this before the chorus
G|--------------------------------------------------------|
D|------2-4-----------------------------------------------|
A|--------------------------------------------------------|
E|-2-2------2-2-------------------------------------------|

[ Tab from: http://www.guitartabs.cc/tabs/j/jimmies_chicken_shack/milk_btab_ver_2.html ]
Chorus
G|--------------------------------------------------------|
D|---------4-3-2------------------------------------------|
A|---4-3-2-------4-3-2------------------------------------|
E|-2-------------------4-3--------------------------------|

G|-------------------|------------------------------------|
D|-------------------|------------------------------------|
A|-------------------|------------------------------------|
E|-2-2---0-2-0-5---8-|-2-2---0-2-0-5-5--------------------|


Bridge (mix these around a bit. You'll hear it)
G|-----------|-------------------|-------------|----------|
D|-----------|-------------------|-------4-----|----------|
A|-----------|-------------------|-------------|--/12\----|
E|-2-2---2-2-|-2-2---2-2-0-2-0-5-|-2-2-----2-2-|----------|

PLEASE send feedback/corrections to asbestos_man_@hotmail.com
Comments