Jimmies Chicken Shack - Do Right Chords & Tabs

 

Do Right Chords & Tabs

Jimmies Chicken Shack Chords & Tabs

Version: 5 Type: Tab 0 ratings
1 star 2 stars 3 stars 4 stars 5 stars
comments

Do Right Tab

                  ~JIMMIE's CHICKEN SHACK~
                        "Do Right"

HEy its AL again sorry about the spelling in my hoobastank tab to be with you.
well here is JCS i recently got into these guys and heres my shot at their song 
called do right


                      INTRO (clean)
e|-----5------9------10-----5-----5-----9-----10------5-----
B|-----5------9------10-----6-----5-----9-----10------6-----
G|-----6-----10------11-----7-----6----10-----11------7-----
D|-----7-----11------12-----5-----7----11-----12------5-----
A|-----7-----11------12-----5-----7----11-----12------5-----
E|-----5------9------10-----5-----5-----9-----10------5----
[ Tab from: http://www.guitartabs.cc/tabs/j/jimmies_chicken_shack/do_right_tab_ver_5.html ]
                    RIFF (light distortion)
e|---5--5---------9--9---------10---10--------5-------------
B|---5----7--5----9----10-9----10-----12-10---6--------7--5-
G|---6-----------10------------11-------------7--6-7-9------
D|---7-----------11------------12-------------5-------------
A|---7-----------11------------12-------------5-------------
E|---5------------9------------10-------------5-------------


                   VERSE (no guitar)

                 **Chorus(lighty distorted)
 

*on second part of the riff u dont play the last strum and the notes that follow.

**the chorus is just the intro but with light distortion.
Song Layout
intro(x4)
Riff(x2)
Verse
Chorus

well after that basicly repeat the chrous over and over..
there is another riff in the song after the first chorus but i 
couldnt figure out the notes so just make with what u have and have 
fun playin this song.....if u need me for questions or comments e-mail 
me at incubusguy1989@yahoo.com....later!-AL
Comments