Jimmies Chicken Shack - Do Right Chords & Tabs

 

Do Right Chords & Tabs

Jimmies Chicken Shack Chords & Tabs

Version: 4 Type: Tab 0 ratings
1 star 2 stars 3 stars 4 stars 5 stars
comments

Do Right Tab

   
Jimmies Chicken Shack
 Do Right 
 Bring Your Own Stereo(1999)
 written by Jimi Haha
 Tabbed By Sam oldskewl83@hotmail.com 

 okay Jimmies Chicken Shack is back with yet another awesome song....

 Standard Tuning (EADGBe)

 (in this opening Verse...The Chord is played once at the beggining of
 each sentence...just listen to the song its not hard to catch on)

 A C#5
 Wont Make the Bed Up Straight I Always Stay Out Late
 D5 F5 A
 I Never take You Out Ask What Your All About I Always 
 C#5 D5 
 Smell Like Smoke Every Things Just a Joke I Never Look
 F5
 At You When You Come Hear Me Sing....

 Okay in the next part play the chords above (A,C#5,D5,F5)

 (with light distortion)
 These are not all of the 
 Many Simple Things
 You Can Find Wrong with Me
 Once Would you tell me Please

 Chorus
 What Do I Do What Do I Do...right

 the next part....
[ Tab from: http://www.guitartabs.cc/tabs/j/jimmies_chicken_shack/do_right_tab_ver_4.html ]
 A C#5 D5 F5 
 e|----------5/2-----------9/5----------10/7----------------------|
 B|--2--2--------5---6--6------9--7--7-------10--3--3--------4/5--|
 G|--2--2------------6--6---------7--7-----------3--3----5/7------|
 D|--2--2------------4--4---------5--5-----------1--1-------------|
 A|---------------------------------------------------------------|
 E|---------------------------------------------------------------|(/ = Hammer On)

 (Note on 2nd time this run goes through....it ends with just the strum of F5)

 Additional Lyrics 

 I Never Talk to You
 Be Who You want Me To
 My Musics Way Too Loud
 My Friends Are All So Proud
 Say Im Just Wasted Hope
 I Could Not Thread the Rope
 More than my Pockets Broke
 And You Dont see A Ring...

 These Are Not All of The
 Infinitesimal Things
 You Can Find Wrong with me
 Once Would You Tell Me Please....

 (Chorus)

 (Okay Here it Changes up a bit..the chords are F#5,C#5,B5,A..then Em)

 Never Wanted to Play in This Game
 Yes Youre Right
 But Losing the Game Dosent Mean
 That were losing the Fight

 (Chorus)


 (Okay Here in goes into Reggae Chords)

 A C#5 D5 F5
 e|----------------------|----------------------|-------------------|----------------------|
 B|-x--x--2--2--x--2--2--|----------------------|-------------------|----------------------|
 G|-x--x--2--2--x--2--2--|-x--x--6--6--x--6--6--|-x--x--7--7--x--7--|----------------------|
 D|-x--x--2--2--x--2--2--|-x--x--6--6--x--6--6--|-x--x--7--7--x--7--|-x--x--3--3--x--3--3--|
 A|----------------------|-x--x--4--4--x--4--4--|-x--x--5--5--x--5--|-x--x--3--3--x--3--3--|
 E|----------------------|----------------------|-------------------|-x--x--1--1--x--1--3--|
 (x Scratch picking)

 What Do I Do....that is Right....


 Thats It! Enjoy!
Comments