Jimmies Chicken Shack - Do Right Chords & Tabs

 

Do Right Chords & Tabs

Jimmies Chicken Shack Chords & Tabs

Version: 3 Type: Tab 0 ratings
1 star 2 stars 3 stars 4 stars 5 stars
comments

Do Right Tab

name: chris lee

artist: jimmies chicken shack

SongTitle: do right

Tabs: standard tuning

intro
-----------5---9---10---5----5---9---10-5-----------------------]
----------------------------------------5-----------------------]
----------------------------------------5-----------------------]
----------------------------------------------------------------]
----------------------------------------------------------------]
----------------------------------------------------------------]
[ Tab from: http://www.guitartabs.cc/tabs/j/jimmies_chicken_shack/do_right_tab_ver_3.html ]
chorus
----------------------------------------------------------------]
----------------------------------------------------------------]
-----------------6--6--6--6---7--7--7--7--7--7--7--7------------]
----4--4--4--4---6--6--6--6---7--7--7--7--7--7--7--7------------]
----4--4--4--4---4--4--4--4---5--5--5--5--5--5--5--5------------]
----5--5--5--5--------------------------------------------------]

solo thingy

------------5-----------------9-------------------10------------------------]
----------------7-5--------------10-9------------------12-10-----5-5--7--10-]
-----------------------6-6-----------------7-7------------------------------]
---4-4-----------------6-6-----------------7-7------------------------------]
---4-4-----------------4-4-----------------5-5------------------------------]
---5-5----------------------------------------------------------------------]


main riff is repeated through most of the song and at the end of the 
song..
im sure there is stuff i left out....email me if you have corrections 
or would 
like to give me a large sum of money

---------------------------------------------------------------------------
Comments