Jimmies Chicken Shack - Do Right Chords & Tabs

 

Do Right Chords & Tabs

Jimmies Chicken Shack Chords & Tabs

Version: 1 Type: Bass Tab 0 ratings
1 star 2 stars 3 stars 4 stars 5 stars
comments

Do Right Bass Tab

   
Do Right  - Jimmie's Chicken Shack
Bass Tab
Tabbed by Asbestos Man (asbestos_man_@hotmail.com)

This can easily be played on a 4-string, just drop
to a D.

Intro
G|---------------------------------------------------|
D|---------------------------------------------------|
A|-----4----5--------------4----5--------------------|
E|-5-------------1----5--------------1---------------|
B|---------------------------------------------------|


Riff 1
G|---------------------------------------------------|
D|---------------------------------------------------|
A|----------------4--4--4-2-4-2--5--5--5-3-5-3-------|
E|-5--5--5-3-5-3-------------------------------------|
B|---------------------------------------------------|
[ Tab from: http://www.guitartabs.cc/tabs/j/jimmies_chicken_shack/do_right_btab.html ]
G|---------------------------------------------------|
D|---------------------------------------------------|
A|---------------------------------------------------|
E|-1--1--1-0-1-3-------------------------------------|
B|---------------------------------------------------|


Riff 2
G|---------------------------------------------------|
D|-----------3-6-3---4-7-4---------------------------|
A|---4-7-4-4-------5---------0-3-5-------------------|
E|-5-----------------------1-------------------------|
B|---------------------------------------------------|


Breakdown
G|---------------------------------------------------|
D|---------------------------------------------------|
A|---------------------------------------------------|
E|-55--5-55--44--4-44--22--2-22----------------------|
B|-------------------------------33--3-33------------|

PLEASE send feedback/corrections to asbestos_man_@hotmail.com

Comments