Jimmies Chicken Shack - Blood Chords & Tabs

 

Blood Chords & Tabs

Jimmies Chicken Shack Chords & Tabs

Version: 1 Type: Bass Tab 0 ratings
1 star 2 stars 3 stars 4 stars 5 stars
comments

Blood Bass Tab

Jimmies Chicken Shack
Blood
Bass

Main
G|--------------------------------------------------------|
D|------9------8-------------------9------8---------------|
A|--7------10---------9------7-7------10--------9------7--|
E|-----------------7-----10------------------7-----10-----|
[ Tab from: http://www.guitartabs.cc/tabs/j/jimmies_chicken_shack/blood_btab.html ]
G|-----------|------------------------------------|--------------|
D|-----------|---------------------8-8--8--9-9--9-|--------------|
A|-10-10--7--|--7-7--7--10-10--10-----------------|--------------|
E|-----------|------------------------------------|-1-1--4--7--8-|

I love the shack.  They are awesome live and are one of the most underrated bands.  
Jimmies chicken shack, i salute you for playing music that doesnt suck 
like...umm..cough..korn..oh did i say that out loud.  Anyway if you want to 
yell at me because you like bands like korn tell me and I will shun you 
at Roastbeefalo@home.com or Redweasel56@usa.net
Comments