Jimmies Chicken Shack - Another Day Chords & Tabs

 

Another Day Chords & Tabs

Jimmies Chicken Shack Chords & Tabs

Version: 1 Type: Tab 0 ratings
1 star 2 stars 3 stars 4 stars 5 stars
comments

Another Day Tab

Author/Artist: Jimmies Chicken Shack
Title: Another Day
Album: Pushing the Salmonila Envolope
Transcribed by: Wes Dolezal
Email: Laminate_Man@yahoo.com

This Tab is not done.

This is a great guitar song, and it probably has my
all time favorite guitar riff.  The song is easier than it
sounds.

-|---------------------------------------------------------------|------------
-|---------------------------------------------------------------|------------
-|-------------7h9p7----7-----------------------7h9p7----7-------|------------
-|--------x----7h9p7----7-----9------------x----7h9p7----7-------|------------
-|----9-x-x--7--------9---9--10-------9--x-x--7--------9---9--9--|------------
-|-7b-7----------------------------7b-7--------------------------|------------
1.)Verse.  Can be tricky to play.

-|------------------------------------------------------|---------------------
-|------------------------------------------------------|---------------------
-|1111-11-12---11-1111-1111-1211--1111-1211-11-9-7-9-7--|---------------------
-|-x-x--x-x-----x--x-x--x-x--x-x---x-x--x-x--x-x-x-x-x--|---------------------
-|-9-9--9-10-x--9--9-9--9-9-10-9---9-9-10-9--9-7-5-7-5--|---------------------
-|------------------------------------------------------|---------------------
lead fill during verse.

-|----------------------------------|----------------------|------------------
-|----------------------------------|-12-12------12--12-12-|------------------
-|1111-1211--11-111111-12-14-1211---|-11-11\\\\\-11--11-11-|------------------
-|-x-x--x-x---x--x-x-x--x--x--x-x---|----------------------|------------------
-|-9-9-10-9-x-9--9-9-9/10/12-10-9---|----------------------|------------------
-|----------------------------------|----------------------|------------------
lead fill cont.                     lead fill #2
[ Tab from: http://www.guitartabs.cc/tabs/j/jimmies_chicken_shack/another_day_tab.html ]
-|-------------------------------|--------------------------------------------
-|-------------------------------|--------------------------------------------
-|-------------------------------|--------------------------------------------
-|-5--5-5--5--4--4-4--4-2-2-2----|--------------------------------------------
-|-5--5-5--5--4--4-4--4-2-2-2----|--------------------------------------------
-|-3--3-3--3--2--2-2--2-0-0-0----|--------------------------------------------
switch up

-|---------------------------------------------------------------------|------
-|---------------------------------------------------------------------|------
-|1111-1211--11-11111111-1211-1111-1211-11-9-7-9-7--9b10r9-7--------7--|------
-|-x-x--x-x---x--x-x-x-x--x-x--x-x--x-x--x-x-x-x-x------------9-9-9----|------
-|-9-9-10-9---9--9-9-9-9-10-9--9-9-10-9--9-7-5-7-5---------------------|------
-|---------------------------------------------------------------------|------
solo

-|--------------------------------------------------------------------|-------
-|--------------------------------------------------------------------|-------
-|----7---7---7---7-9-9b10-10-10r9---9----------7----------------7----|-------
-|--9---9---9---9------------------7---7---9-9------9-9--7---9-9---9--|-------
-|--------------------------------------------------------------------|-------
-|--------------------------------------------------------------------|-------
--pm-----------

-|--------------------------|-------------------------------------------------
-|-9-9b10r9-7---7---14-14b--|-------------------------------------------------
-|------------9-------------|-------------------------------------------------
-|--------------------------|-------------------------------------------------
-|--------------------------|-------------------------------------------------
-|--------------------------|-------------------------------------------------
Comments