Jimmies Chicken Shack - Another Day Chords & Tabs

 

Another Day Chords & Tabs

Jimmies Chicken Shack Chords & Tabs

Version: 1 Type: Bass Tab 0 ratings
1 star 2 stars 3 stars 4 stars 5 stars
comments

Another Day Bass Tab

Jimmie's Chicken Shack
Another Day
Pushing The Salmonella Envelope

G|-----------------------------|----------------------------|
D|-------9--7h9p7----7---7-----|-------9--7h9p7----7---7----|
A|-----------------9---9---10--|-----------------9---9---9~-|
E|--7-7------------------------|--7-7-----------------------|
[ Tab from: http://www.guitartabs.cc/tabs/j/jimmies_chicken_shack/another_day_btab.html ]
G|-----------------------------|
D|-------9--7h9p7----7---7-----|
A|-----------------9---9---10--|
E|--5-7------------------------|


Any questions, comments, criticism, or just want to talk music email
redweasel56@usa.net

This one of my favorite cds! GO out and pick it up! It's got a little 
bit of everything

Comments