Jimi Hendrix - Woodstock Improvisation Chords & Tabs

 

Woodstock Improvisation Chords & Tabs

Jimi Hendrix Chords & Tabs

Version: 1 Type: Tab 0 ratings
1 star 2 stars 3 stars 4 stars 5 stars
comments

Woodstock Improvisation Tab

   
                         WOODSTOCK IMPROVISATION (Live)
                           As recorded by Jimi Hendrix
                     (From the 1969 Double Album WOODSTOCK)

Music by Jimi Hendrix
Transcribed by Sorwell@aol.com

Gtr I (Eb Ab Db Gb Bb Eb) - 'Untitled'

 Purple Haze Riff
    Q=120
 4/4
  Gtr I
              ~~~~~~                 ~~~~~~
  a E E E     E +Q   +E  E   a E E E E +E.  S   Q
|--------------------------|------------------------|
|-------8b8.5--------------|------------------------|
|-----7--------------------|---------------(0)------|
|-7S9---------7-(7)--(7)S2-|-3h5-0---------(0)------|
|--------------------------|---------7-(7)----------|
|--------------------------|-------0-----------17\--|


              ~~~~~~~~~~~~~
  a E E E     E   +Q   +E  E
|----------------------------|
|-------8b8.5----------------|
|-----7----------------------|
|-7S9---------7b9-(7)--(7)-7-|
|----------------------------|
|----------------------------|


              ~~~~~~                 ~~~~~~
                                                              |--3---|
  S S S S S S E +Q   E S S   E E E   E +Q   +E. S   a E E E E E S E  S E S S
|--------------------------|----------------------|---------------------------|
|--------------------------|----------------------|----------------------0----|
|--------------------------|----------------------|------------------------2--|
|-5------------------------|---7-7b9-5-(5)--(5)S1-|-3S5---------2-------------|
|---7-5--------------------|-5--------------------|-----5-7---2---------------|
|-------7-5-5-3-(3)--0-5S7-|----------------------|-------0-3-----4S15p0------|


    H.=H                          Q=9Q
                    ~~~~~~
    |--3--|
  a S +S  S E E   S S +E  S T T S E.
|------------------------------------|
|------------------------------------|
|---------------------------------7--|
|---------7-5-7b8-5h7-(7)-5-------7--|
|-7S9-(9)-------------------7-5-0----|
|------------------------------------|


 Strat improvation
 =96
   |------3------|                                      |---3----|  |--3--|
   S     +E   S  E  S     S  S     S  S  S  S  T     T  S  S  a  S  S  S  S
|---------------12-------12-------12-15-12----------12h15p12-------12h15p12-|
|------------12----15b17----15b17----------12-15b16-12-------12h15p12-------|
|-14b16-(14)----------------------------------------------------------------|
|---------------------------------------------------------------------------|
|---------------------------------------------------------------------------|
|---------------------------------------------------------------------------|


   a  T  T  T  T  a  T  T  T  T  T  T  T  T  a  T  T  T  T  a  T  T  T  T  a  T  T  T  T 
|-------12-15p12-------12-15p12----12-15p12-------12-15p12-------12-15p12-------12-15p12--|
|-12h15p12-------12h15p12-------15p12-------12h15p12-------12h15p12-------12h15p12--------|
|-----------------------------------------------------------------------------------------|
|-----------------------------------------------------------------------------------------|
|-----------------------------------------------------------------------------------------|
|-----------------------------------------------------------------------------------------|


   T  T  T  T  a  T  T  T  T  a  T  T  T  T  a  T  T  T  T  a  T  T  T  T  a  T  T  T  T 
|----12-15p12-------12-15p12-------12-15p12-------12-15p12-------12-15p12-------12-15p12-|
|-15p12-------12h15p12-------12h15p12-------12h15p12-------12h15p12-------12h15p12-------|
|----------------------------------------------------------------------------------------|
|----------------------------------------------------------------------------------------|
|----------------------------------------------------------------------------------------|
|----------------------------------------------------------------------------------------|


  T  T  T  T  T  T  T  T  T  T  T  T  T  T  T  T 
|15p12-------15p12-------15p12-------15p12-------|
|------15p12-------15p12-------15p12-------15p12-|
|------------------------------------------------|
|------------------------------------------------|
|------------------------------------------------|
|------------------------------------------------|


                                                  |------6-------|  |--3--|
   T  T  T  T  T  T  T  T  +S   T  T  T  T  T  T  S  S  S  S  S  S  S  S  S  T  T  T  T
|-15p12-------15p12----12-(12)----------------------------------------------15p12----15p==|
|-------15p12-------15-12-(12)-15-12-15-12----12-15-12-15-12-15-12-15-17-12-------15-12---|
|-----------------------0--(0)-------------15--0------------------------------------------|
|-----------------------------------------------------------------------------------------|
|-----------------------------------------------------------------------------------------|
|-----------------------------------------------------------------------------------------|


   |---3---|  |--3--|   |-----3-----|   |--3--|
   S  +S   S  S  S  S   S     +S   +S   S  S  S  S  S  T  T  T.  X  T     T  T  T  T     T  T  T
|-12-(12)----12-----0------------------12--------------------------------------------------------|
|---------12----15p(0)-15b17-(15)-(15)----15p12-15-12-------11-----------12-15p12----------------|
|-----------------------------------------------------15S14-11--12-14b15----------14b16-14p12----|
|---------------------------------------------------------------------------------------------14-|
|------------------------------------------------------------------------------------------------|
|------------------------------------------------------------------------------------------------|


                                                                                     |--3--| 
   T  T  T  T  T     +T   T  T  T  T  T  T  T     +T   T  T  a  S     S  T  T  T  T  S  S  S 
|--------------------------------------------------------------------------------------------|
|-------15p12------------------------15p12---------------------------15-12h14p12----12h15p12-|
|-12h14-------14b16r(14)-12----12h14-------14b16r(14)-12----12h14b15-------------14----------|
|---------------------------14---------------------------14----------------------------------|
|--------------------------------------------------------------------------------------------|
|--------------------------------------------------------------------------------------------|


                                                                      \1.5___/
  |---3----|      |--3--|                                                         |----3-----|
  S     S  S   S  T  T  T  T  T  T  T  a  T  T  T  T  T       S.  S  T  T  E  +E  S     +S  +S
|-----------------------------------------------------------------------------------------------|
|------15p12------------------------------------------------------------------------------------|
|14b15--------15-14p12----12--------------------------------------------------------------------|
|14b15-----------------14----14p12----12h14p12----------------------------12-(12)p0-----(0)-(0)-|
|----------------------------------14----------13p12-------------10-12S14-----------------------|
|----------------------------------------------------15b15.5-12---------------------------------|


  Q=85        H=H                                        Q=87
                                                    ~~~~~
                            |---3----|
   E      +E    S    S      S  S     S  T  T  T  T  E    E  T     +S   T
|---------------------------------------------------------------------12-|
|-15-----(15)--15---15-----14-14b15-14-12-14-12------------15b17-(15)----|
|-14b16==(14)-(14)r-14pb16-14-14b15-14-12-14p12----12b13-0---------------|
|-----------------------------------------------14-----------------------|
|------------------------------------------------------------------------|
|------------------------------------------------------------------------|


               |-3--|  |----3-----|                  |----3-----|                  |--3---|
   S     T  T  S  S S  S       S  S  T     +S   +T   S     +S   S  T  T  T  T     +S   S  S     +T 
|-------12h15----12p0---------12-12-15b17-(15)-(15)-15b17-(15)-15-12h15p12------------12-----------|
|-15b17-------15------15b15.5----------------------------------------------15b17-(15)----15b17-(15)|
|--------------------------------------------------------------------------------------------------|
|--------------------------------------------------------------------------------------------------|
|--------------------------------------------------------------------------------------------------|
|--------------------------------------------------------------------------------------------------|


                                                                  H=H
                                                    |-----3-----|  |----3----|
   T  T  T    T     T  T  T  S     T  T  S  T  T  T      +S.  +E      +E   E  E      E  E
|-12----------------------------------------------------------------------13--------------|
|----15p12---------12-15p12----------------------15b19==(15)r(15)b17-(15)----15pb17r======|
|------------14b16----------14b16-14p12----12-14------------------------------------14p13-|
|------------------------------------------12h14------------------------------------------|
|---------------------------------------14------------------------------------------------|
|-----------------------------------------------------------------------------------------|


                        Q=89
   |--------6---------|  |--------6---------|  |--------6---------|  |------------6-------------|       
   S     +S   S  S  S S  S  S      S  S  S  S  S  S      S  S  S  S  T  T  T  T        T        T       
|-------------------------------------------------------------------------------------------------------|
|-------------------------------------------------------------------------------------------------------|
|-14b16-(14)-14-12----0-14-14pb16-14-12----12-14-14pb16-14-12----12-14-14-14-14pb14.5-14pb14.5-14pb14.5-|
|------------------14-------------------14--------------------14----------------------------------------|
|-------------------------------------------------------------------------------------------------------|
|-------------------------------------------------------------------------------------------------------|

  |-----------------6------------------|        |------------------6-------------------|      
  T      T      T      T      T        T        T      T      T        T      T        T     
|--------------------------------------------------------------------------------------------|
|--------------------------------------------------------------------------------------------|
|14pb15-14pb16-14pb17-14pb18-14pb18.5-14pb19---14pb19-14pb19-14pb18.5-14pb18-14pb17.5-14pb17-|
|--------------------------------------------------------------------------------------------|
|--------------------------------------------------------------------------------------------|
|--------------------------------------------------------------------------------------------|







  |-------------------6--------------------|  |-----6------|
  T        T      T        T      T        T  S S  S S  S  S  a  S  S  S  S  S     E.
|-------------------------------------------------------------------------------------|
|-------------------------------------------------------------------------------------|
|14pb16.5-14pb16-14pb15.5-14pb15-14pb14.5-14-12p0-12p0--------------------------------|
|------------------------------------------------------------12h14p12----12-----------|
|------------------------------------------------------14p12----------14p12--------0--|
|---------------------------------------------------------------------------15b16-12--|


 3/4
   T  S  T  T  T  T  T  S.  T.   T.   S    S   S  E
|---------------------------------------------------|
|---------------------------------------------------|
|-------12-12-12-------14------------14---14-----14-|
|-------12-12-12-------14-------14--(14)-(14)-14-14-|
|-12-14----------15S16-----16--(16)-(16)-(16)-------|
|---------------------------------------------------|


                                                                    Q
 4/4
                                                      ~~~~~~~
                     |--3--|
   S  X  X  X  X  S  T  T  T  T  T  T  T  T  T     T  T  +E. T T Q
|-------------------------------------------------------------------|
|------------------------------------------------------------0-0----|
|-13-------------------------12-------------------------------------|
|-14-14-14-------14-17p16p14-12-14-12----------------14-(14)--------|
|-14-14-14-14h16----------------------14-12-------------------------|
|-------------------------------------------15b16-12-------------0--|


 =90
   E      S   S      +S   S   E      E   E  S   +S  E
|-17b19==17r-17b19==(17)-17r-17b19-(17)-(8)-5b7-(5)-0-|
|----------------------------17b19-(17)-(8)-----------|
|-----------------------------------------------------|
|-----------------------------------------------------|
|-----------------------------------------------------|
|----------------------------------------0------------|


                H=H                      Q=98
   |----3-----|     |-3--|                       |--3---|
   E.    +S   E E   S S  S  S     +S   E S   +S  S +S   S
|-17b19-(17)\-0-5b7r0-0-17-17b19-(17)-^0-5b7-(5)-0-(0)-17-|
|-------------0-----0-0---------------^0-5b7-(5)-0-(0)----|
|-------------------------------------^0------------------|
|---------------------------------------------------------|
|---------------------------------------------------------|
|---------------------------------------------------------|


  H=H           Q=106
                                           |--3--|
   E    E E S S  E    S T T T T T T  S  a  T  T  T
|-17b19-------0-------------------------------------|
|-----------5-0-10b12---------------14--------------|
|-------0S6-------------2S3S2p0-----14-14-13h14p13--|
|---------------------0---------2p0-----------------|
|---------------------------------------------------|
|---------------------------------------------------|


                        H=H                       Q=1Q
   |---3---|  |---3---|                    |-3--|
   S  +S   S  S  +S   S  S  S  S  S  S  S  S  S S Q
|-------------------------------------------------0--|
|-------------------------------------------------0--|
|-------------------------------------------------0--|
|-14-(14)-12h14-(14)p12-14-12-------14-12---------0--|
|--0--------------------------14-12-------14-12-0----|
|----------------------------------------------------|


 =90
                            |----3----|               |--3--|
   E.    S  E     S      S  S     S  +S   T  T  T  T  T  T  T  T  T  T  S  T
|-------15--------------------------------------------------------------------|
|-15b17----15b17--------------------------------------------------------------|
|----------------15pb16-15-12b13---------12-----------------------------------|
|--------------------------------14-(14)----14p12----12h14p12-----------------|
|-------------------------------------------------14----------13p12-----------|
|-------------------------------------------------------------------15-12-12--|


 7/8
            ~~~~~~~
   T  S  T  E  +S.  T  T  T  T T  T  T  S  T  T  T  T  S S
|------------------------------0---------------------------|
|------------------------------0---------------------------|
|---------------------14-12------12-14-12-------12-14-12---|
|-------12h14-(14)-12h14p12------12h14p12-12-14-12h14-12-0-|
|-12-14---------------------14------------12h14------------|
|----------------------------------------------------------|


                             H=H                                                Q=94
 4/4
                              |------6-------|  |--3--|
   S     S  T     T  T     T  T  T  T  T  T  T  T  T  T S  T  T   T  T  S  T  T  T  T  S  T  T  T  T
|-----------------------------------------------------------------------------------------------------|
|-15----15-15----15-15----15--------------------------------------------------------------------------|
|-14b15----14b16----14b16----14p12----------------------0-------(12)14----------12-14----------12-14--|
|----------------------------------14p12-------12h14p12-0--------12h14-12-------12h14-12-------12h14--|
|----------------------------------------14p12------------12h14-----------12h14----------12h14--------|
|-------------------------------------------------------------------------12--------------------------|


                                                         H=H       Q=120
                                                         E
                                                        2/4
                                            |--3--|
   Q   T  T  T  T  S  T  T  T  T  E.  T  T  T  T  T  E    Q  E  S.  T
|------------------------------------------------------|-!0------------|
|------------------------------------------------------|-!0----^0--(0)-|
|-12--------12-14-12-------12-14-12--------------------|-!1----^1--(1)-|
|-12--12-14-12h14p12-12-14-12h14-12--12----12h14p12-14-|-!2----^2--(2)-|
|-----12h14----------12h14-----------12h14----------14-|-!2--2---------|
|------------------------------------------------------|-!0--0---------|


  Q=138
  Fmaj7                                             G6
 4/4                          3/4                  4/4
      |-3--| |-3-| |---3---|                                    |-3--|
  Q  +E  E E E E E E E T.T.T   S S S S Q  S S S S   H.      a a E E  E
|-0--(0)-------0-0-1-3-1h3p1-|-0----------0-0-0-0-|-0-------------5--3---|
|-1--(1)---0-1-3-------------|---3p1p0h1--1-1-1-1-|-3-----------5---(0)--|
|-2--(2)-2-------------------|------------2-2-2-2-|-4---------x----------|
|-3--(3)---------------------|------------3-3-3-3-|-5-------x------------|
|----------------------------|--------------------|----------------------|
|-1--(1)---------------------|--------------------|-3--------------------|


                H=H             Q=142 H.=H                        Q=10
                                                               E
  |-3-|  |--3---| |--3--| |---5---|
  E E E +E  +E  E E E S S S S S S S   S S S S S   +S  +S  S E.  S Q
|-2-0-------------------------------|--------------------------!0----|
|-----3-(3)-(3)-0-------------------|--------------------------!0----|
|-----------------2p0h2h4h5p4p2h4p2-|-2-0-----2b3r(2)-(2)-0----!1----|
|-----------------------------------|-----2-0-2b3r(2)-(2)p0-2--!2----|
|-----------------------------------|--------------------------!2----|
|-----------------------------------|-----------------------------0--|


 8H=H                             Q=120
                      ~
                        |-3-|
  S S S S S S S S S a E T T T S S S S
|--------------------------------------|
|--------------------------------------|
|-------------------------------0------|
|-------------0-2-3-3-5-3h5p3S2p0h2S3S=|
|-------0-2-3--------------------------|
|-0-1-3--------------------------------|


                                          |--3--| |----6----| |-3-| |-3-|
  S  S S S S E S +S  E. E S S   E S S S S S +S  S S S S S S S S S S S S S
|-----------------------------|-----------------------------------------0-|
|-----------------------------|-----------------------------------------0-|
|---(3)--------0-(0)--------0-|-------0---------0---0---0-----------0-0-0-|
|-5p=3S2p0h2h3-------3--2-3---|-3-3S5-5S7-7-(7)---9---9---9-9-9-9-9-9-9---|
|-----------------------------|-------------------------------------------|
|-----------------------------|-------------------------------------------|


  H=H
     |--3--|   |---3----| |-3--| |-3-| |-3-| |-3-|
  a  E  E  E  +S   +S   S S  S S S S S S S S S S S T T T T
|----------------------------------------------------------|
|----------------------------------------------------------|
|----------------------------------------------------------|
|-9S11-11-11-(11)-(11)-11p9h11p9S7h9p7S6h7p6S4h6p4S2h4p2p0-|
|----------------------------------------------------------|
|----------------------------------------------------------|


                         Q=138
                         E
 2/4        4/4
             |-3-| |-3-|             |-3-|
   E E  Q    E E E E E E  Q  a S. S. T T T
|------^0--|-------------!0--3h5--3--1-3-1--|
|------^0--|-------------!0-----------------|
|------^1--|-----------0-!1-----------------|
|------^2--|-----0-2-3---!2-----------------|
|----------|-2-3---------!2-----------------|
|-16S0-----|-------------!0-----------------|


  H=H                 Q=120
    |-3-| |-3-| |-3-| |-3-| |-3-| |-3-| |-3-|
  E S S S S S S S S S S S S S S S S S S S S S
|-0-------3p1p0-------3p1p0-------3p1p0-------|
|---3p1p0-------3p1p0-------3p1p0-------3p1p0-|
|---------------------------------------------|
|---------------------------------------------|
|---------------------------------------------|
|---------------------------------------------|


  |-3-| |-3-| |-3-| |-3-| |-3-| |-3-| |-3-| |-3-|
  S S S S S S S S S S S S S S S S S S S S S S S S
|-3p1p0-------3p1p0-------3p1p0-------3p1p0-------|
|-------3p1p0-------3p1p0-------3p1p0-------3p1p0-|
|-------------------------------------------------|
|-------------------------------------------------|
|-------------------------------------------------|
|-------------------------------------------------|


                                      H=H
  |-3-| |-3-| |-3-| |-3-| |-3-| |-3-| |-3-| |-3-|
  S S S S S S S S S S S S S S S S S S S S S S S S
|-3p1p0-------3p1p0-------3p1p0-------3p1p0-------|
|-------3p1p0-------3p1p0-------3p1p0-------3p1p0-|
|-------------------------------------------------|
|-------------------------------------------------|
|-------------------------------------------------|
|-------------------------------------------------|


  |-3-| |-3-| |-3-| |-3-| |-3-| |-3-|
  S S S S S S S S S S S S S S S S S S T T S S S
|-3p1p0-------3p1p0-------3p1p0-------3p1p0-3-3---|
|-------3p1p0-------3p1p0-------3p1p0-------------|
|-------------------------------------------------|
|-------------------------------------------------|
|-------------------------------------------------|
|-------------------------------------------------|


                  Q=138
 5/4
                            |-3-|
  S S S S S S S S S S S S S S S S S +E  S S
|-5-5-5-5-5-5-5-5-5-5-5-5-5-3h5p3-1-(1)-1-1-|
|-------------------------------------------|
|-------------------------------------------|
|-------------------------------------------|
|-------------------------------------------|
|-------------------------------------------|


 4/4
                            |-3-|
  S S S S S S S S +S  S S S S S S E
|-1-3-3-3-3-3-3-3-(3)-3-3-3-3-0-0----|
|---------------------------x-0-0----|
|---------------------------x-0-0----|
|---------------------------5--------|
|------------------------------------|
|---------------------------------1--|


 7/8
  S S S S S S E S S S S S  S
|-0-0-------------------------|
|-1-1-3-3-3-3-3-0-0-----0-----|
|-2-2-0-0-0-0-0-----0-0-------|
|-3---5-5-5-5-5-----------(5)-|
|--------------------------x--|
|--------------------------3--|


 4/4
  a S S S S S S S S E S S S S E   E S S S S S S S S E E E
|-------------------------------|---------------------0h1---|
|-------------------------------|---------------------0-----|
|-------------------------------|---------------------------|
|-5-7-7-7-7-7S5-5S3-3-3-3-3S5-5-|-5-5-5-5-5-5-5-5-5-5-------|
|-x-x-x-x-x-x-x-x-x-x-x-x-x-x-x-|-x-x-x-x-x-x-x-x-x-x-------|
|-3-5-5-5-5-5S3-3S1-1-1-1-1S3-3-|-3-3-3-3-3-3-3-3-3-3-------|


                                     2/4           4/4
                                      |-3-| |-3-|   |-3-| |--3--| |-3-| |-3-|
  S S S S S S S S a S S S S S S S S   E E E E E E   E E E E S S E E E E E E E
|-3-3-3S5-5-5-5-5-5S7-7-7-7-7-7-7-7-|-7-7-7-5-7-5-|-3-3-3-5-3-5-3-1-1-1-3-1-0-|
|-------------------------------x-x-|-------------|---------------------------|
|-----------------------------------|-------------|---------------------------|
|-----------------------------------|-------------|---------------------------|
|-----------------------------------|-------------|---------------------------|
|-----------------------------------|-------------|---------------------------|


                                              H.=H           Q=98
  TP TP TP TP   TP      TP   TP
                                |-3-| |-3-|                        |--3--|
  Q  Q  Q  Q    H.      Q    H  E E E E E E   +Q   a E a E a E a E S E S E
|-1-----------|------------|----------------|--------0---0---0---0---------|
|-------------|------------|------0-----1-3-|-(3)--1h3-1h3-1h3-1h3-1p0h1p0-|
|-------------|------------|------x-0-2-----|------------------------------|
|----3--5--7--|-9-------5--|-3--3-3-0-2-----|------------------------------|
|----x--x--x--|-x-------x--|-x--------------|------------------------------|
|----1--3--5--|-7-------3--|-1--------------|------------------------------|


          H=H
                        |-3-|   |-3-| |-3-|
  S S S S S S S S S S a S S S a S S S S S S
|---------------0-------0-1-3-3-5-5-5-3h5p3-|
|-1h3p1p0-1h3p1p0-1h3-0---------------------|
|-------------------------------------------|
|-------------------------------------------|
|-------------------------------------------|
|-------------------------------------------|


  |-3-| |-3-|         |-3-| |-3--|  |-3--|  |-3-|
  S S S S S S T T T T S S S S S +S  S S +S  S S S T T T T
|-1h3p1p0---------------------------------------------------|
|---------3p1p0-------3p1p0---------------------------------|
|---------------0h2p0-------2p0-(0)---------0-2-0-----------|
|-----------------------------------3p0-(0)-------0-2-0-2---|
|-----------------------------------------------------------|
|-----------------------------------------------------------|


  Q=108
                E                 C   C7      F
 2/4                 4/4
  T T T T T T S  Q    S S S S E E S S S S +S  E S
|---------------^0--|-----------------------------|
|---------------^0--|-----------------------------|
|---------------^1--|---------------0-3-0-(0)---2S|
|-0h2p0h2p0h2---^2--|-----------0---0-2---------3S|
|---------------^2--|-------0-2---3---------------|
|-------------0-----|-0-1-3-------------------1---|


  G      C     D         a
 7/8
   S S S S S S S  S   S  E E.
|-----------------------------|
|----------------(7)-(7)------|
|--4-4-4---0-0----7---7----6\-|
|--5-5-5---5-5-7--7---7--7-7\-|
|--------3-----5---------x----|
|-/3---------------------5----|


                                      D5    F#C#  C       G/B   AaddG
 4/4
  S S S S +S  S E S S S S S T T S S   S S S S S S S  S  S S S S S S S S
|-----------------------------------|------------------------------------|
|-----------------------------------|------------------------------------|
|-----------------------------------|-2-2-2-2-3-3---(5)-5---0-0-0-0-0----|
|---2-2-------2---2-----------------|-0--------------5--5-5-5-5-5-5-5----|
|-0-----------------------0-0h2-2-4-|-------4-4-4-3-------2-2-2-0-0-x----|
|-------4-(4)---2---0-2-4-----------|-------------------------------3-3--|

[ Tab from: http://www.guitartabs.cc/tabs/j/jimi_hendrix/woodstock_improvisation_tab.html ]
        (F)     D5    D5/G  D5/GD5/a
  S S S S S S a S S S S S S S S S  S
|-------------------------------------|
|-------------------------------------|
|---4---------5S7-7-7-7-7-7-7-7-7-(7)-|
|---5-5S3-3-3-----7-7-7-7-7-7-7-7--7--|
|-----x-------3S5-5-5-x---x-x---x-(x)-|
|-3---3-1-1-1---------3---3-4---5-(5)-|


  Bb    E5    C       F#5         (D)Ab
                                   |--3--|
  S S S S S S S  S  S  S  S  T  T  E  E  E
|-------------------------------------------|
|---------------------------------------13--|
|---7-7----------9--9-11-11-11-12----13-13--|
|---8-8-9-9-9---10-10-11-11-11-12-12-13-13--|
|-------7-7-7----------9--9--------x-11-11--|
|-6-----------8-------------------10--------|


  E        a        A#          F#7
   |--3--|  |--3--|
   E  E  E  E  E  E  S  S  S  T  T  S  S  S  S
|----------------------------------------------|
|----12-12-14-------15-15-15-------------------|
|----13-13-14-14-14-15-15-15-------------15-15-|
|----14-14-14-14-14-15-15-15-------------14-14-|
|----------12-12-12-13-13-13-------------------|
|-12-------------------------13S14-14-14-------|


  B5       E        A5       D        G5    C
   S  S  S  S  S  S  S  S  S  S  S  S  S  S S  S
|-------------------------------------------------|
|-------------------------------10-10-------------|
|----16-16----13-13----14-14----11-11----12----9--|
|----16-16----14-14----14-14----12-12----12---10--|
|-14----------------12----------------10----------|
|----------12----------------10-------------8-----|


  F5    Bb    Eb5 Ab  DbB5/F#            E
  S  S  S S a S S S S S T. S  T  T T T.S E
|--------------------------------------0-0-|
|--------------------------------------0-0-|
|---10\---7-----8---5-6----4-----4---3-0-1-|
|---10\---8-----8---6-6----4-----4---3p0-2-|
|-8---------5S6-------4--------------------|
|-------6---------4-----2----(2)-----------|


  half-time feel Q=84
  F#5        B5          C#m                 A5
  H    E S S S S S S   a S E S E S S S S S S S S S S
|--------------------|--------------------------------|
|--------------------|---------5----------------------|
|----------------4---|---------6-----------------2----|
|-4----4-4-4---4---4-|-----6---6-6-4-6---6---2-2---2--|
|-x----4-4-4-2-------|-2h4---4---4-4-4---4-0-0--------|
|-2----2-2-2---------|-----------------3--------------|


    B5                    C#7
  a S S S S E S S S S S S S S S S
|---------------------------------|
|---------------------------------|
|---------4-4---4-4---4-4-----4---|
|-----4-4-----4---4-4-4-------3-3-|
|-0h2-------------2-------4-4-----|
|---------------------------------|


  D7               B5
  Q  E S S S S S S S S S S   a E. S T T E S S S S S E. a S
|--------------------------|----------------------------------|
|--------------------------|--------5h7p5---------------------|
|-5--5-----5-5-5---4---4---|----------------------------------|
|-x--4-4---4-4-4---x-x---4-|------6-------6-----4-6-----------|
|-5--5---5-------5S2-------|-2h4------------4-7-----0---------|
|--------------------------|---------------------------0h1S===|


  a           AsusA             F
  S S S  S  a S S E +S  S S S a E S S
|-------------5-----------------------|
|-------------5---5-(5)---------------|
|-----6-(6)-6h7p6-6-(6)-----------2---|
|-----7--7--------7-(7)-7-7-7---3---3-|
|---0-7--7--------------x-x-x---x-----|
|-5---------------------5-5-5S0-1-----|


    F#m                                 B5
            |-3-|                 |-3-|
  a S S S S T T T S S T T T T S S T T T S S S S
|------------------------------------------------|
|-----------------2-2----------------------------|
|-----------2h4p2-2-2-----------------------4----|
|-3S4-4-4-4-------2-4-4p2-4p2---------------4-4--|
|-x-x-x-x-x-------------------2-4-4p2p0-2-2-2-2--|
|-1S2-2-2-2--------------------------------------|


                               H=H
  C#5                  (E)     F#m               B5    C#m                A5
  S S S S S S S S Q  S S S S   S S S T T T T T T S S S S S S T    +T  T T S S
|----------------------------|-----2-----------0------------------------------|
|----------------------------|-----2-2-2-2---2-0---------5-5-5pb7r(5)---------|
|---6----------------------1-|-------2-2-2h4-2-0---4-----6---x--------6-6-----|
|-6-6---6-6-6-6-6-6--x-----2-|---4---------------4-4-4-6-6---x--------6-6-----|
|-4-4-----4-4-4-4-4--x-0-----|-------------------2---4-4-----4------------7-7-|
|------------------------0---|-2------------------------------------------5-5-|


  B5          C#      D5    D5/a        B5
  S S S T T S S S T T S T T S T T S S T T T T
|---------------------------------------------|
|-------------6-6-6-6-------------------------|
|-4-4-4-4-4-4S6-6-6-6-7-7-7-7-7-7-7-7-7S4-4-4-|
|-4-4-4-4-4-4S6-6-6-6-7-7-7-7-7-7-7-7-7S4-4-4-|
|-2-2-2-2---2S4-4-4---5-----x-----5-5-5S2-2-2-|
|---------------------------5-----------------|


  Q=88
  C#                  a
  S T T S  S  S S S S S T T S T T  S  S S S
|---------------------------------------------|
|-------6-----6-------------5---5-(5)---------|
|-6-6-6-6--6--6---------6---6---6-(6)---------|
|-6-6-6-6--6--6---------7-7---7-------7-6-5---|
|-4-------(4)-------------------------x-x-x---|
|---------------0-2-4-5------------5--5-4-3---|


  F#m                 C#7add9     G7  G13
  S S S T T T T S S S S S S T T T T S S T T
|-------------------------------------------|
|-----2-2-----------------4-4-4-------5-----|
|-----x-x-2-----------4---4-4-4---4-4-4-----|
|-4-4-4-4-4-4-4-2-4---x---3-3-3---3-3-3-3-x-|
|-x-x---x---x---x-x-3-4-4---------x-x-----x-|
|-2-2---2---2---0-2-------------3-3-3-----x-|


  F#      C#5       E5      B5      Bb5     G#
  S T T T T S T T S S T T S S T T T T S T T S T T
|--------------------------------------------------|
|---------------0-0--------------------------------|
|-----------------x--------------------------------|
|---4-4-4-6-------x---9-9-9------------------------|
|---x-x-x---4-4---4-7-7-7-7-9-9-9-9-8-8-8-8--------|
|-2-2-2-2-------------------7-7-7-7-6-6-6-6-4-4-4--|


  C#5       D5        E5        C#5       F#
  S T T T T S T T T T S T T T T S T T T T T T T T S T T
|-------------------------------------------------------|
|-------------------------------------------------------|
|---------------------9-9-9-9-9-6-6-6-6-6-3-3-3-3-3-x-x-|
|---6-6-6-6-7-7-7-7-7-x-9-9-9-9-6-6-6-6-6-4-4-4-4-4-x-x-|
|-4-4-4-4-4-5-5-5-5-5-7-7-7-7-7-4-4-4-4-4-x-x-x-x-x-----|
|-----------------------------------------2-2-2-2-2-----|


  F#11      G#11          a
  S S T T a  S  +T   T  S S T T S S S S +Q
|-0-0---0----0--(0)---------------------------|
|-0-0---0----0--(0)---------------------------|
|-9-9---9-9S11-(11)-------6-----6-6-6-6-(6)---|
|-7-7---7-7S=9--(9)--9--9-7-----7-7-7-7-(7)---|
|-9-9-----9S11-(11)-11-11-7-----7-7-7-7-(7)---|
|-----0---------------------0-0-0-0-0-0-(0)---|


  H.=H                            Q=Double-time feel Q=160
                              Asus2
  S S S S +S  S S T T S E S S S S S   S S S S S S E E S S E S S
|-------------------------------0-0-|-0-----0-0-0---0-0-0-0-0-0-|
|-----------------------0-------0-0-|-4S5-5---5---5-5-5---5-5---|
|-6-------------6-------6-----4-----|-0-------------------------|
|-7-9-----------7-------7---7-7-----|---------------------------|
|-7---7-7-(7)---7---7---7-7-7-------|---------------------------|
|-----0-0-(0)-0---0---0-------------|---------------------------|


  a E S S E S a S E E S S S S   S S  E  S  S  S  S a  S S  S S  S S  E
|---0-0-0-0-0---0-0-0-0---0---|-0-0--0--0--0--0--0----0-0--0-0--0-0--0-|
|-4S5-5---5---5S7-7-7-7S9-9-0-|-9---10-10-10-10-10-9S10---10---10---10-|
|-----------------------------|----------------------------------------|
|-----------------------------|----------------------------------------|
|-----------------------------|----------------------------------------|
|-----------------------------|----------------------------------------|


   E  S  S  S S  S S  S  S  S S  E  S  S
|--0--0--0--0-0--0----0--0--0----0--0--0---|
|-10-10-10-10-9-10p9-10-10-10p9h10-10-10---|
|------------------------------------------|
|------------------------------------------|
|------------------------------------------|
|------------------------------------------|


  S S a S S S S S S E  S  S S S a E
|-0-0---0-0-0-0-0-0-------0-0-0-----|
|-9---9S5---5---2-x-4--4----4---4S1-|
|---------------------(4)-----------|
|-----------------------------------|
|-----------------------------------|
|-----------------------------------|


   S  S S S S S S S E E S S S S   S S S S S S E S S S S S S S S
|--0--0-0-0-0-0-0-0-0-0-0-0-0-0-|-0-----0---x-0-0-0-0---0-----0-|
|-(1)---1-1-2---2---2-2-2---2---|-1S2-2---2-x-4-4---4S1-1S6S7---|
|-------------------------------|-0-----------------------------|
|-------------------------------|-------------------------------|
|-------------------------------|-------------------------------|
|-------------------------------|-------------------------------|


  E S S S S S S S S  E  E S S
|-0-0-0-0-0-0-0-0-------0-0-0-|
|-7-7---7---7---7h9-(9)-9-9---|
|-----------------------------|
|-----------------------------|
|-----------------------------|
|-----------------------------|


  H.=H
  a E S S S S a S S a T T T T T T T T T T T T S S
|---0-0-0-0-0---0-0---0---0-------0---0-------0-0--|
|-7S9---------7S9---9p7h9p7h9p7h9p7h9p7h9p7h9-9-9--|
|--------------------------------------------------|
|--------------------------------------------------|
|--------------------------------------------------|
|--------------------------------------------------|


                                  Q
   E S S   E E  S S S S  S S  S S
|--0-0-0---0-0--0-0-0-0--0-0--0-0-|
|-13-----/14---14-------14---14---|
|---------------------------------|
|---------------------------------|
|---------------------------------|
|---------------------------------|


 =152
   E  S S  E  E      E  E  a  E  S S    E  S S  S S  S  S  E  E  E  E
|--0--0-0--0--0------0--0-----0--0-0-|--0--0-0--0-0--0-----0--0--0--0---|
|-14-14---14-14b16r(14)---16S14-14---|-12-12---12---12h14-12-12-12-12---|
|------------------------------------|----------------------------------|
|------------------------------------|----------------------------------|
|------------------------------------|----------------------------------|
|------------------------------------|----------------------------------|


   E  S S S S  E   S  S  S S  E  S S
|--0--0-0-0-0--0---0--0--0-0--0--0-0-|
|-11-11-------11-(11)---11---11-11---|
|------------------------------------|
|------------------------------------|
|------------------------------------|
|------------------------------------|


   E S S S S  E   S  S S S  E S S    E S S S S  a  E  E  +E   E  S S
|--0-0-0-0-0--0---0--0-0-0--0-0-0-|--0-0-0-0-0-----0--0--(0)--0--0-0--|
|-10---------10-(10)-------10-----|-10---------10-14-14-(14)-13-13----|
|---------------------------------|-----------------------------------|
|---------------------------------|-----------------------------------|
|---------------------------------|-----------------------------------|
|---------------------------------|-----------------------------------|


   E S S  S S  E  +S   S   E  E  E    E S S  S S  E  +S  S  E  E  S S
|--0-0-0--0-0--0--(0)-(0)--0--0--0-|--0-0-0--0-0--0--(0)-0--0--0--0-0-|
|-12-----12---12-(12)-----12-12-12-|-11-----11---11-(11)---11-11-11---|
|----------------------------------|-11-------------------------------|
|----------------------------------|----------------------------------|
|----------------------------------|----------------------------------|
|----------------------------------|----------------------------------|


   E S S  E  S S  S S  S S  E  S  S
|--0-0-0--0--0-0--0-0--0-0--0--------|
|-10-----10-10---10---10---10-15-15--|
|-----------10-----------------x--x--|
|-----------------------------12-----|
|------------------------------x-----|
|-----------------------------10-----|


  (Em7)
   E  S S  E  E  E  E E E    E  E  E  S S  S   S   E  S  S  S  S
|-------------------------|--------------------------------------|
|-14-15-x-----------------|--0-----------------------------------|
|--x--x-x-12-14-----------|--x-14-------0----<12>-----------x----|
|-11-12-x--x--x-12-14-----|-12-14------------<12>-14-------12-14-|
|---------10-12--x--x-----|--0----12-14---12---------12h14-------|
|---------------10-12-0-0-|-------12---------------0--0----------|


               |--3--|                   |--3--|
  S S  S  S E  S  S  S  a  E  S S  S  S  S  S  S
|-------------------------------------------------|
|-------------------------------0--------------0--|
|-------------12----12----------0--------------x--|
|-----14-14---12h14p12----14-14---------12h14p12--|
|-----14-14------------14---------12-14-----------|
|-0-0-------0----------------------0--------------|


    E   S  S  S  S  S  S  S S  S  S S  S  S S   E  S  S  S  S  S  S S  S  S S  a  E  S  a  S
|---------------------------------------------|-------0--------------------------------------|
|---------------------------0-----------------|-------0--------------------------------------|
|---------12-14p12------------------x---------|------12h14-12-12h14--------------12-------14-|
|-(12)-14-12-14----14-12h14---------x-12h14p0-|---14-------12-12h14-x-12------12h14----14h16-|
|-----------------------------12h14-----------|---14------------------12h14-x----------------|
|---0-------------------------12--------------|-0-----------------------------------12-------|


   +S  S  S  S S  S  S S  S  S S  a  S  +S  S  E
|-------------------------------------------------|
|------0---------------0--------------------x-----|
|-(14)-----------14-------------------------0-----|
|-(16)---14----x-14h16---12h14-x--------------12--|
|--------14h16-x-----------------12h14-(14)---12--|
|-------------------------------------------------|


   S  S  S  S  S  S  S  S  S     S  E  E  S  S
|----------------------------------------------|
|--------------------------------------0-------|
|----------------12--------------------x----12-|
|-14-12-14-12-14-12----------------12-14-14-14-|
|-------------------14p13----------12----------|
|-------------------------15b16-12-------------|


               |-3--|
   S  E S  S S S S  S  S E S E S S   E E S S E +S  S E S S S S
|----------------------------------|-----------------------------|
|----------------------------------|-----------------------------|
|----------------------------------|-------------------1-1-1p0---|
|----------------------------------|-------2-2-(2)-2-2-2-2-2p0---|
|------------------(0)-----------2-|-2-2-2---2-(2)---------------|
|-10h12-9h10-0-7h9p=0--5h7-3h5-0-0-|-0-0-----0-(0)---------------|


  S S S S S S S S +S  S S S S S E   E S S S S E S S S S E S S
|---------------------------------|---------------------------|
|---------------------------------|-------------0-----0-0-----|
|---0---0---0---------0---0-------|-0-0-0-0-0-0-0-0---0-0-0-0-|
|---------------------------------|-x-x-x-x-x-x-x-----x-x-x---|
|-------------2-3-(3)---5-----6S7-|-7-7-7-7-7-7-7-----7-7-x---|
|-2---5---3-----5-(5)---7---7-8S9-|-9-9---9---9-----9-----x---|


  S E S +S  S  E   S   S E E S  S
|-----------------------------------|
|-------------(0)----------0--------|
|---0----------------------x--------|
|---0-------2--3-------9---7-7--9---|
|-2---3-(3)-3--5--(5)-10-7-9-9-10---|
|-----------------------------------|


   +S   S  E  S S  S  S  E  S  S  S  S S S   S S S S S S S S S  S  E S  S  S S
|----------------------------------------0-|-0-0-------0-------(4)-4-4-(4)-----|
|----------0--0-0--------0--0--0--0--0---0-|-0-0-------0--------x--x-x--x------|
|----------x--x-x--------x--x--x--x--x---0-|-4-4-2-2-x----------4--4-4--4----0-|
|--(9)--9--9--9-9--9--9--9--9--9--9--9-----|-x-x-x-x-------0---------------0-0-|
|-(10)-10-10-10---10-10-10-10-10-10-10-----|-5-5-4-4-x-------0-------------0---|
|--------------------------------------0---|-------------0---------------------|


   S  S S S  a  S S  S  S  S  S  a  S  S  a  S S S S
|--------------------0--0----------------------------|
|-----------------0--0--0----------------------------|
|--------------------x--0----------------------------|
|-------------------14-14-14-14----------------------|
|----------------------------------------------------|
|-17\-x-x-x-13S15---------------13S15-15-12S10-x-0-0-|


  Q=142
                                            E           Emaj7
  E E E S S E E E E   E S S E S S E E E E   E S S E S S E S S E S S
|-----0-----x---x---|---------------------|-------------4---4-4-4-4-|
|-3---3-----x---x---|---------------------|-------0-0-0-4---4-4-4-4-|
|-x---x---------x---|-1-----1-------------|-1-----1-1-1-4-4---4-4-4-|
|-2---2-------------|-2-----2-----2-3-5-3-|-2-----2-2-2-2-----2-2---|
|-------------------|-----2-----2-2-x-x-x-|---------2---------------|
|---0---0-1---0---1-|---0-----0---0-1-3-1-|---0-0-------------------|


                                D5
  E S S S S S S E S S S S S S    E  S S S S S S E S S E S S
|-----------4-4-4-4-4-4-4-4-4-|-----------------------------|
|---------4-4-4-4-4-4-4-4-4-4-|-(7)-------------------------|
|-4-4-4-4-4-4-4-4-4-4-4-4-4-4-|--7----------7-7-7-7-7-7-7-7-|
|-2-2-2-2-2-2-2-2-2-2-2-2-2-2-|--7--7-7-7-7-7-7-7-7-7-7-7-7-|
|-----------------------------|--5--5-5-5-5-5-5-5-5-5-5-5---|
|-----------------------------|-----------------5-----5-----|


  a  E  S  S S  S  S  S  E S S  E  S S
|----------------------------------------|
|----------------------------------------|
|-7S11-11-11---11-------11-----11-11-9S==|
|-7S11-11-11---11-11-11-11-----11-11-9S==|
|-5S=9-------9-----9--9--9-7S9--9--------|
|----------------------------------------|


  C5                      C/E C/F C/F#
  E S S E E E S S E E   E E E E E E S S S S
|---------------------|---------------------|
|---------------------|---------------------|
|-5-5-5-----5-5-5-----|-5---5---5---5-x-----|
|-5-5-5-----5-5-5-----|-5---5---5---5-x-----|
|-3---------3---------|-3-----3---3---------|
|-------3-5-------3-5-|---0---1---2-----2-3-|


  G                         G7sus4F#5
  E E E S S E E E E   E E E E E E E E
|-------------------|------------------|
|-------------------|------------------|
|-----4-------------|---------------0--|
|-----5-5-5-5-5-5-5-|-5-2-2-3-3-4---x--|
|---5---x---x-x-x-x-|-0-2-2-3-3-4-4-4--|
|-3-3---3---3-3-3-3-|-3-3-3-3-3--------|


  D                       D/F#D/G D/G#A
  E E E E E E E  E     E  E E E E E E  E
|-------------------|--------------------|
|---------------(7)-|-(7)----------------|
|-7-----7-7-7-7--7--|--7----7---7---7--6-|
|-7-7-7-7-7-7-7--7--|--7----7---7---7--7-|
|-5-5-5---5-5-5--5--|--5-----------------|
|-------------------|-----2---3---4---/5-|


                       H.=H
                       E
  E E Q  +E  E  E  E   E E E S S S S E E E
|--------------------|-----------------------|
|--------------(5)-5-|---------9-------------|
|-----6--(6)---(6)-6-|-9-9-9-9-9-------9-9---|
|-----7--(7)----7--7-|-9-9-9-9-------9-9-9---|
|-----7--(7)-7-----7-|-7-7-7-7-------7-7-7---|
|-5-5--------5-----5-|-----------7h9---------|


                  Q=14H=H
    E/G#E/a E/A#  E/B B
  E E E E E E E S S   E E Q  E E E E
|-------------0-0-0-|----------------|
|-------------0-0-0-|------------7---|
|-9---9-9-9---9-9-9-|-----8------8---|
|-9-9-9-9-9---9-9-9-|-----9------9-9-|
|-7-7-7-7-7-----x-x-|--------------9-|
|---4---5---6---5-7-|-7-7----7-7-----|


                        Q=144
      B/D#B/E F           F#
  E   E E E E  E  E S S    E  S  S  E  S  S  E  E  E  E
|-----------------------|-------------------------------|
|---------9-------------|----11-11----------------------|
|-----9-9-9-9-10-10-x-0-|----11-11----------------11-11-|
|-----x-x-9-x--x--x-x---|-11-11-11-11-11-11-11-11-11-11-|
|-----x-x-7-7--8--8-x---|--9--------x--x-----9--9--9--9-|
|-7b8-9-9---------------|-----------9-11----------------|


                            H=H
       F#/A#F#/B  F#/C        C#
    E  E  E  E  E E  E  S S    E  E  E  E  E  E  E  E
|---------------------------|-------------------------|
|-(11)--------------11-11-x-|--9-----------9--9--9--9-|
|--11----11-11-11---11-11-x-|-10----10-10-10-10-10-10-|
|--11----11-11-11---11-11-x-|-11-11-11-11-11-11-11-11-|
|---9--------x--------------|--x--x--x--x--x--x--x--x-|
|------6-----7----8---------|--9--9--9--9--9--9--9--9-|


                                Q=148
         F    F#    G     G#5
   E  E  E  a  E  E  E  E  S  S    E  E  E  E  a  E  E  E  E
|-------------------------------|----------------------------|
|--9-------10S11-11-12-12-------|----------------------------|
|-10-(0)---10S11-11-12-12-13-13-|-13-13-13-13-12S13-13-13-13-|
|-11--x----10S11-11-12-12-13-13-|-13-13-13-13--x----13-13-13-|
|--x--7--8--8S=9--9-10-10-11-11-|-11-11-11-11-10S11-11-11-11-|
|--9----------------------------|----------------------------|


     G#/C  G#/C# G#/D        Eb
   E  E  E  E  E  E  E S S    E  E  E  S  S  Q   E  E
|--------------------------|-------11----11-11--------|
|--------------------------|----11-11-11-11-11--11----|
|-13-13-13-13-13-13-13-----|----12-12-12----12--12-12-|
|-13-13-13-13-13-13-13---0-|----13-13-13----13--13-13-|
|-11-11-11-11-11-11-11-0---|-----------x------------x-|
|-----8-----9----10--------|-11-------11-----------11-|


  G        G#    a     Bb
   E  E  E  E  E  E  E   E     E  E  E  S  S  E  E  S  S  S  S
|---------------------------|-----------------------------------|
|-12-------13---------------|-15-15-15-15-15-15-15-15-15-15-15--|
|-12--0-12-13-13-14-14--15--|-15-15-15-15-15-15-15-15-15-15-15--|
|-----x--x--x-13--x--x---x--|-15-15-15-15-15-15-15-15-15-15-15--|
|----10-10-11-11-12-12-(13)-|-13-13-13-13-13-13-13-13-13-13-13--|
|-----------------------13--|-----------------------------------|


     Bb/D              Bb/E
   E  S  S  E  S  S  E  E  E  S  S
|----------------------------------|
|-15----15-15----15-15-15-15----13-|
|-15----15-15----15-15-15-15----14-|
|-15----15-15----15-15-15-15----15-|
|-13--------------------x----------|
|----10-------10-------12----12----|


  Fmaj7     a     G       D                   E B5  D5  E5  A5B5    E5G5
   S  S S S  E  S  S  +S   S  E  S S  S  S    E S S S S E S E S S S S S
|--0--0--------------------------0-0----(0)-|---0------------------------|
|-13-13-x-x-14----12-(12)-------10-0-----0--|---0------------------------|
|-14-14-x-x-14----12-(12)-------11----------|---4-4S7-7S9-9--------------|
|-15-15-----14----12-(12)-12-12-12---12-----|---x-x---x---x-7-9-9-9-2-5--|
|--x--------12-10-10-(10)--x--x-------------|---2-2S5-5S7-7-x-x-x-x-x-x--|
|-13----------------------10-10-------------|-0-------------5-7-7-7-0-3--|


      A5  E5F#5 G5      A5  D5    F#5
  +S  S E S S S S +S  S S S E +S   S
|------------------------------------|
|------------------------------------|
|---------------------------7-(7)S11-|
|-(5)S7-7-2-4-4-5-(5)-5-7---x------x-|
|-------x-x-x-x-x-----x-x---5-(5)S=9-|
|-(3)S5-5-0-2-2-3-(3)-3-5-5----------|


              B5    A5  D       C   F#G5          A5B5
 3/4                         4/4
   S  S  S  S S S S S E S S   S S E S S S S E S S S S S S
|---------------------------|-----------------------------|
|-----------------------7-7-|-7-5-5-----------------------|
|-11-11-11-11-----------7-7-|-7-5-5-----------------------|
|--x--x--x--x-9-9-9S7-7-x-x-|-x-x-x-4S5-5-5-5-5-5-7-9-9-9-|
|--9--9--9--9-x-x-x---x-5-5-|-5-3-3-x---x-x-x-x-x-x---x-x-|
|-------------7-7-7S5-5-----|-------2S3-3-3-3-3-3-5S7-7-7-|


                                  Villanova Junction
                                Q=74
  E                                Am
 9/8                              4/4
  S S S S S S S S E S S S S E E    E E E E E a S S E E
|---------0-0-0-0-0-----0-0-----||---------------------|
|---------0-0-0-0-0-0-0-0-0-----||---------8-----------|
|---------1-1-1-1-1-1-1-1-1-----||-----5-7---7S9S7S5-7-|
|---2-2-2-2-2-2-2-2-2-2-2-2-2---||-7-7-----5-----------|
|---2-2-2-------------------2---||-----3-5---5S7S5S3-5-|
|-0---0-0-------------------0-0-||-5-5-----------------|


  E E E E E E E E   E E E E S S S S S T T S S       E E E E Q   E  E
|-----------------|-------------------------------|------------------*|
|-----------------|-------------------------------|-------5-5--------*|
|-----5-------5---|-----5-------------------------|-----5------------*|
|-7-7-7-7-7-7-7-7-|-7---7-7-5h7-5-7-5-----5-------|---7-7-7-7--(7)-7-*|
|-----------------|-------------------5h7p5-------|-----7---0--------*|
|-5-5-5-5-5-5-5-5-|-5-5-5-5-----------------8b8.5-|-5-5-5-5-0---5--5-*|


Duration Legend
---------------
W - whole; H - half; Q - quarter; E - 8th; S - 16th; T - 32nd; X - 64th; a - acciaccatura
+ - note tied to previous; . - note dotted; .. - note double dotted
Uncapitalized letters represent notes that are staccato (1/2 duration)
Irregular groupings are notated above the duration line
Duration letters will always appear directly above the note/fret number it represents the
duration for.  Duration letters with no fret number below them represent rests.  Multi-
bar rests are notated in the form Wxn, where n is the number of bars to rest for.  Low
melody durations appear below the staff

Tablature Legend
----------------
 h   - hammer-on
 p   - pull-off
 b   - bend
 pb  - pre-bend
 r   - bend release (if no number after the r, then release immediately)
 /\  - slide into or out of (from/to "nowhere")
 s   - legato slide
 S   - shift slide
  - natural harmonic
[n]  - artificial harmonic
n(n) - tapped harmonic
 ~   - vibrato
 tr  - trill
 T   - tap
 TP  - trem. picking
 PM  - palm muting
\n/  - tremolo bar dip; n = amount to dip
 \n  - tremolo bar down
 n/  - tremolo bar up
/n\  - tremolo bar inverted dip
 =   - hold bend; also acts as connecting device for hammers/pulls
 <>  - volume swell (louder/softer)
 x   - on rhythm slash represents muted slash
 o   - on rhythm slash represents single note slash

Misc Legend
-----------
 |  - bar
||  - double bar
||o - repeat start
o|| - repeat end
*|  - double bar (ending)
 :  - bar (freetime)
 $  - Segno
 &  - Coda
Tempo markers -  = BPM(8/16=s8/s16), where s8 = swing 8ths, s16 = swing 16ths
Comments