Jimi Hendrix - Wild Thing Chords & Tabs

 

Wild Thing Chords & Tabs

Jimi Hendrix Chords & Tabs

Version: 2 Type: Tab 0 ratings
1 star 2 stars 3 stars 4 stars 5 stars
comments

Wild Thing Tab

Hey my name is Reid and this is my first guitar tab. this is correct enough

Wild thing - Jimi Hendrix

|------------------------------------|
|------------------------------------|
|------------------------------------|
|-------3-3-3--5-5--3-3-3------------|
|-3-3---1-1-1--3-3--1-1-1---3-3------|
|-1-1-----------------------1-1------|
You might want to do a nit of muting to make it
sound better, if you want to.

|------------------|
|------------------|
|------------------|
|------------------|
|--1--3--3--3------|
|--1--3--2--2------|
thats what you play when you say 
"wild thing, i think i love you" and so on.

Thats basiclly what you do through out the song
apart from the solo here
[ Tab from: http://www.guitartabs.cc/tabs/j/jimi_hendrix/wild_thing_tab_ver_2.html ]
|----------------------------------------------------------|
|-------------------------9--------------------------------|
|-9-11r9-11-9-11~~---9-11---11-9----9r8----9r8-9--8-9~-----|
|----------------------------------------------------------|
|----------------------------------------------------------|
|----------------------------------------------------------|
                                           
|----------------------------------------|----------------4-----|
|----------------------------------------|----------------4-----|
|-8-9d/11--9--8--9r8-------9----9----9~~-|-----------4t6--5b----|
|---------------------11-----11---11-----|-9b|h|r|7-------4-----|
|----------------------------------------|---------9------6b----|
|----------------------------------------|----------------4-----|
                   im not quiet sure about it here though /\
Comments