Jimi Hendrix - Who Knows Chords & Tabs

 

Who Knows Chords & Tabs

Jimi Hendrix Chords & Tabs

Version: 2 Type: Bass Tab 0 ratings
1 star 2 stars 3 stars 4 stars 5 stars
comments

Who Knows Bass Tab

TABBER: LUV_LED_ZEP
THIS IS MY FIRST TAB SO PLEASE PUT THAT IN CONSIDERATION

THIS IS A GREAT BLUESY SONG BY JIMI ENJOY


THE WHOLE SONG IS BASED ON THESE NOTES ALONE.
[ Tab from: http://www.guitartabs.cc/tabs/j/jimi_hendrix/who_knows_btab_ver_2.html ]
FIRST RIFF
G------------------------------------------|
D------------------------------------------|
A-4--4-2-4-2------------7------------------|
E------------4-3-2--2-0--------------------|

COX THROWS THIS IN FROM TIME TO TIME

SECOND RIFF
G------------------------------------------|
D------------------------------------------|
A-4-2-----------7--------------------------|
E-----4-2--1--0----------------------------|

THATS IT
ENJOY
Comments