Jimi Hendrix - Star Spangled Banner Chords & Tabs

 

Star Spangled Banner Chords & Tabs

Jimi Hendrix Chords & Tabs

Version: 5 Type: Tab 0 ratings
1 star 2 stars 3 stars 4 stars 5 stars
comments

Star Spangled Banner Tab

Jimi Hendrix
"Star spangled banner"


e-----------7-5-3----------7-5-3-2-0-2-33-----777-8-10-10--8-7-5-7-8-8--8-|
b----------8------0-2-3-33---------------3-0------------------------------|
g-7-4--4-7----------------------------------0-----------------------------|
d----5--------------------------------------------------------------------|
a-------------------------------------------------------------------------|
E-------------------------------------------------------------------------|
[ Tab from: http://www.guitartabs.cc/tabs/j/jimi_hendrix/star_spangled_banner_tab_ver_5.html ]
e-7-5-3-2-0-2-3--------333-2-0-0-0-5-8-7-5-3-3-2---3-5-7-8-10-3-5-7-7-8-5-3-|
b---------------0-2-3-3-------------------------33--------------------------|
g---------------------------------------------------------------------------|
d---------------------------------------------------------------------------|
a---------------------------------------------------------------------------|
E---------------------------------------------------------------------------|

This is a really easy song, although sound difficult... so just turn everything up and let it all out!
Comments