Jimi Hendrix - Star Spangled Banner Chords & Tabs

 

Star Spangled Banner Chords & Tabs

Jimi Hendrix Chords & Tabs

Version: 4 Type: Tab 0 ratings
1 star 2 stars 3 stars 4 stars 5 stars
comments

Star Spangled Banner Tab

Jimmy Hendrix
"The Star Spangled Banner"

submitted by: Andy Whitaker
e-mail address: dixiefeaver14@aol.com

Oh say can you see..
-------------3----5/7-5-3--------------5/7-5-3-2----0-2-3-3-------|
-2/3-0---0-3--------------0-2-3----3-3----------------------3-0---|
-------0--------------------------------------------------------0-|  do all that twice
------------------------------------------------------------------|
------------------------------------------------------------------|
------------------------------------------------------------------|
[ Tab from: http://www.guitartabs.cc/tabs/j/jimi_hendrix/star_spangled_banner_tab_ver_4.html ]
..and the rocket's...                                       ..oh say does that...
-5/7-7-7-8-8/10-10---8-7\5-5-7-8-8--7/8-7-5-3-2-0-2-3-----------3-3-3-2-0-0-0-|
------------------------------------------------------0-2-3---3---------------|
------------------------------------------------------------------------------|
------------------------------------------------------------------------------|
------------------------------------------------------------------------------|
------------------------------------------------------------------------------|

                          ..for the land...
-5-7/8\7-5\3-3-3h5p3-3\2-------3-5-7-7/8-8/10---3-5-6/7-7/8-5-3---------------|
---------------------------3-3--------------------------------3---------------|
------------------------------------------------------------------------------|
------------------------------------------------------------------------------|
------------------------------------------------------------------------------|
------------------------------------------------------------------------------|
Comments