Jimi Hendrix - Red House Chords & Tabs

 

Red House Chords & Tabs

Jimi Hendrix Chords & Tabs

Version: 3 Type: Tab 0 ratings
1 star 2 stars 3 stars 4 stars 5 stars
comments

Red House Tab

   
-------------------------------------------------------------------------------
			     Red House - Jimi Hendrix:blues
-------------------------------------------------------------------------------
From Jimi Hendrix :blues cd
  


tuning:standard 

e|--11-11--11--11----11--11--10--10--10--10----10--------------------------|
B|-----------10-------------------------------9----b10b10b10-b1010---------|
G|/11---11-11--11-11---11--10--10--10--10-1010--------------------b9-------|
D|-----------------------------------------------x------------------987----|
A|-----------------------------------------------x---------------------9875|
E|-------------------------------------------------------------------------|
                                                           (. 3x   .)
e|--------------7-------7-----------------------------7--------7107--------|
B|-------------7-10p7--7-10p7-----------------------7-b10--b10-----7-------|
G|-b97~7b97~-b9------b9------10797-97-7-----------b9-----------------------|
D|-----------------------------------9--97-7-------------------------------|
A|----------------------------------------9--------------------------------|
E|-------------------------------------------------------------------------|
[ Tab from: http://www.guitartabs.cc/tabs/j/jimi_hendrix/red_house_tab_ver_3.html ]
e|-119-------------7--------b13--------------------------14----------------|
B|----119---------7-12-151412--1212-B16b1615121512--12B14--b14p12-1412-----|
G|-------11109/-----------------------------------14------------------1316\|
D|-------------------------------------------------------------------------|
A|-------------------------------------------------------------------------|
E|-------------------------------------------------------------------------|
                      theres.yonder      thats.stay
e|-----57----------------------------44---------------7---7------7---------|
B|----7----------7/9------------------4----------------b10-107--7-10-------|
G|2/47--b74---6/8--------------------44~------------b9--------b9-----------|
D|---------4---------------------------------------------------------------|
A|-------------------------------------------------------------------------|
E|-------------------------------------------------------------------------|
                     ya. theres baby               thats.stay
e|-----------------------------------44-----------------------------2/4\2--|
B|-------------------------------------4\----------------------------------|
G|-997-7-----------------------------444\---------------------2/4\2-2/4\2--|
D|----9--97-7--------------------------------------------------------------|
A|---------9--75-5--5-0----------------------------------------------------|
E|--------------7-57-7-----------------------------------------------------|
              well.baby    been.days                                 bout.it     
e|--7---7------------------------------7-------------7----97---------------|
B|------------------------------------7-b1010p7-----7-10p7--b107-----------|
G|-----------------------7---------b9------------b9-------------97-7-------|
D|---5/7/9\7------------7-----------------------------------------9-97-----|
A|---------------------9--7-------------------------------------------9----|
E|-------------------------------------------------------------------------|
     wait.wrong                  the.door
e|---------------7-------------------------7-------------------------------|
B|-9\-------------b10-107-----------------7-b10~B10b10-B10b10-B10b10-B10b10|
G|-9\----------b9--------b997-B7--------b9---------------------------------|
D|-9\------------------------9--9------------------------------------------|
A|-------------------------------------------------------------------------|
E|-------------------------------------------------------------------------|
                                 wait.baby     (E) the.door     ya
e|-----------7---97-------------------------------------------------------0|
B|B10b107---7-107--1097--7-p9-777---------x-x-x-------------------B4~030---|
G|-------~B9------------B9---B9~~b9p7-----x-x-x-----------b2~--b3~---------|
D|-----------------------------------9----x-x-x-------------4320-----------|
A|-------------------------------------------------------------------------|
E|-------------------------------------------------------------------------|
  I.uh        that.neither                           still.guitar 
e|-------------------------7-----------------------------------------------|
B|------------------------7-107--------------------------------------------|
G|----------------------B9------b97----------------------------------------|
D|---------2-----------------------9p79p79p79p79p--------------------------|
A|-------23----------------------------------------------------------------|
E|----3/4---0--------------------------------------------------------------|


solo

e|-------------------10---b13---------------b131012B13~12~101210--B12------|
B|---12--12--12-12----12p10---12p1012h15/-----------------------12---1212--|
G|-11--11--11--------------------------------------------------------------|
D|-------------------------------------------------------------------------|
A|-------------------------------------------------------------------------|
E|-------------------------------------------------------------------------|

e|--b151414-b1514-b1514-b1514-B15~-B151412p1412\10-------------------------|
B|12-----------------------------------------------10H12-10H1210-B10-------|
G|--------------------------------------------------------------10---7b87--|
D|-------------------------------------------------------------------------|
A|-------------------------------------------------------------------------|
E|-------------------------------------------------------------------------|

                   (   2 x    )  (  4x  )
e|--------------------7---7------------------------------7---------------7-|
B|-------------------7-b10-107-----710p7---77107--7107b10-107--7107-----7--|
G|b99797~97--------b9------------b9------b9-----b9-----------b9----B8--8---|
D|---------9\---------------------------------------------------------9----|
A|-------------------------------------------------------------------------|
E|-------------------------------------------------------------------------|

e|---7---b107------b11107---797-B12101210b12------b1717p1417b17-1417B1714--|
B|B10-107----------------710---7------------1212~--------------------------|
G|-------------------------------------------------------------------------|
D|-------------------------------------------------------------------------|
A|-------------------------------------------------------------------------|
E|-------------------------------------------------------------------------|

e|---14--141714--14--------------------------------------------------------|
B|b18-b18------b18-b1717--17--b16--------12710p7---12b7---------------9\7--|
G|----------------------19--19---16\----11---------11b7--------------------|
D|------------------------------------/9-----------10b797-------------9\7--|
A|----------------------------------------------------------B12B12---------|
E|-------------------------------------------------------------------------|

  I,down    goback,hill
e|-----------------------7--9--------------7---97--------------------------|
B|----------------------7b10-107----------7-107--1097--b87b8---------------|
G|--------------------b9--------1097-97--8------------------6h7p6-b6-4h6p4\|
D|----------------------------------9---9------------------------9---------|
A|-------------------------------------------------------------------------|
E|------xxx----------------------------------------------------------------|

   I,yonder    way,hills               thats,from
e|--------------------------7--7----------------------------x7-------------|
B|-------------------------7B10-B107----------97-b7----7/9\7-797-----------|
G|---------B77-----------b9-------------------979b7----7/9\7-797-----------|
D|----------------------------------------------9------7/9\7-797-----------|
A|--------9----------------------------------------------------------------|
E|-------------------------------------------------------------------------|


  cos,more         I,will
e|---------0000------------7--7------------------------------7-------------|
B|---------5555------------b10-107-77-----x---4----------------------------|
G|-----------------------b9------b10-98-8-x--34----------------------------|
D|-------------------------------------9--x--34----------------------------|
A|-------------------------------------------5-----------------------------|
E|-------------------------------------------------------------------------|

|  tune to open A string on 5th staff with cd 
| B  bend notes
| b  bent notes
| /  slide up
| \  slide down
| h  hammer-on
| p  pull-off
| ~  vibrato
| +  harmonics
| x  Mute notes
| tab by &&

===============================================================================
Comments