Jimi Hendrix - Machine Gun Chords & Tabs

 

Machine Gun Chords & Tabs

Jimi Hendrix Chords & Tabs

Version: 1 Type: Tab 0 ratings
1 star 2 stars 3 stars 4 stars 5 stars
comments

Machine Gun Tab

Author/Artist: Jimi Hendrix
Title:  Machine Gun
Album: Band of Gypsies
Transcribed by: Owen M.
It must have taken me forever but i have brought it...MACHINE GUN!
This is one of hendrix's greatest masterpieces and like a lot of the time 
it is in an Eb tuning (Eb-Ab-Db-Gb-Bb-eb).  I only have bits of it but im 
sure you'll like it.


First section:

------------------------------------------------------------------------------
------------------------------------------------------------------------------
------------------------------------------------------------------------------
-x-x-x-x-x-x-x-x-x------------------------x-x-x-x-x-x-x-x-x-------------------
-x-x-x-x-x-x-x-x-x-12b-12b-12-10----------x-x-x-x-x-x-x-x-x-12b-12-10---------
-x-x-x-x-x-x-x-x-x---------------12/10-12-x-x-x-x-x-x-x-x-x-----------10------
 Second Section:                                                              
[ Tab from: http://www.guitartabs.cc/tabs/j/jimi_hendrix/machine_gun_tab.html ]
-0----------------------------------------------------------------------------
-0----------------------------------------------------------------------------
-----------------------------------12b-------------------------------------12-
-14---14---------12/14-12----12/14-------14-----14-------12/14-12-------14-12-
---------0-12/14----------14-----------------------12/14----------14-12-------
----0---------------------0-----------------0-0-------------------------------
 Third Section:                                                               

------------------------------------------------------------------------------
------------------------------------------------------------------------------
---7-9-----------------7-9----------------------------------------------------
---------------------------------------5--------------------------------------
---------5b-7--------7-----0-------5-----7------------------------------------
-0-----0---------0-x---------3/5/7---7----------------------------------------
 Well Iguess thats it. And if you really want it to sound even better then    
what you can do is use a fuzz face and a univibe and then you'll truly kick
Comments