Jimi Hendrix - Hey Joe Chords & Tabs

 

Hey Joe Chords & Tabs

Jimi Hendrix Chords & Tabs

Version: 2 Type: Tab 0 ratings
1 star 2 stars 3 stars 4 stars 5 stars
comments

Hey Joe Tab

jimi hendrix,hey joe.
 Tabbed by kevin,celticdahoopz@aol.com.
  
intro;

e/-----0------0------0------------0----------------0
b/-----3slide-5-slide3------------0----------------0
g/---------------------2h3-p0-----1   s s s s s----1
d/----------------------------0h2-2--4-5-4-5-4-5---2
a/--------------------------------2--4-5-4-5-4-5---2
e/--------------------------------0--------------0-0 

e/---------------------------
b/-----7----7----------------
g/-----7----7----------------
d/--7h9--7h9--9--------------
a/---------------------------
e/--

verse 1,2,3,4,5,6

e/----------3-3-------0-----------------0----------
b/----------3-3-------3--------2-2-2----0-----------
g/-5-5-5----4-4-------2--------2-2-2----1-----------
d/-5-5-5----5-5------0---2-4-2-2-2-2----2-0h2--0----
a/-3-3-3----5-5-------------------------2-----2-2---
e/--------3-3-3--4h5------------------0----------3b0

play this continouisly as jimi repeats this part over and over.
[ Tab from: http://www.guitartabs.cc/tabs/j/jimi_hendrix/hey_joe_tab_ver_2.html ]
guitar solo;
e----12-12-12---------------12-12-12----------
b-15b---15-12------------15b---15-12----------
g--------------14b-12-12-------------14b-12-12
d---------------------------------------------
a---------------------------------------------
e---------------------------------------------

e-------------------------------12-----------------
b------------------12--15b--15b---15--12-15--------
g--12--12----------12---------------14-----12-12-14
d----14--14---12h14--14----------------------------
a-----------14-------------------------------------
e--------------------------------------------------

e-12-------15-15b-12----12-12
b---15--12-----------15------
g-----14---------------------
d----------------------------
a----------------------------
e----------------------------

scale in the outro

e-------------------------------------0------------0
b-------------------------------------0------------0
g-------------------------------------1----------0-1
d-------------------------------------2----0---0---2
a-3---------2-3-4-5---------4-5-6-----2-0h2-0h2----2
e---0-1-2-3---------2-3-4-5--------0--0------------0

this is a great song and if you listen to the song this should be easy 
:: Ultimate Guitar Archive :: 
http://www.ultimate-guitar.com 



Comments