Jimi Hendrix - Hear My Train A Comin Chords & Tabs

 

Hear My Train A Comin Chords & Tabs

Jimi Hendrix Chords & Tabs

Version: 2 Type: Bass Tab 0 ratings
1 star 2 stars 3 stars 4 stars 5 stars
comments

Hear My Train A Comin Bass Tab

************************************************************************
Song: Hear My Train A Comin'
Band: Jimi Hendrix
Tabbed By: Jeremy L.(soniteam@comcast.net)
************************************************************************

I've tryed to play the previous tab for this song and it didn't sound right so I made
this tab which I think sounds better.

Intro/First Verse
G |------------|
D |------------|
A |-7-7-5------|  
E |-------240--|

Eventually changes to this (listen for change):

Second Verse
G |--------------------|
D |--------------------|
A |-752-----7-7/5------|
E |-----240-------240--|
[ Tab from: http://www.guitartabs.cc/tabs/j/jimi_hendrix/hear_my_train_a_comin_btab_ver_2.html ]
Just keep on playing the second version variation until the solo and solo outro.


	Solo					solo outro
G|---------------------------------------------|------------------------------------|
D|---------------------------------------------|------------------------------------|
A|757-7/5-2------757-7/5-2------757-7/5-2------|7777775-----7777775-----7777775-----|
E|----------2/80-----------2/80-----------2/80-|--------240---------240---------240-|

========================================================================
I'm pretty sure this is correct. Email me if you think otherwise. Thanks
========================================================================
Comments