Jimi Hendrix - God Save The Queen Chords & Tabs

 

God Save The Queen Chords & Tabs

Jimi Hendrix Chords & Tabs

Version: 1 Type: Tab 0 ratings
1 star 2 stars 3 stars 4 stars 5 stars
comments

God Save The Queen Tab

   W/MAX DISTORTION


|-----------------------------------------------------|
|-X\~~~~~~~~~~~~~~~~~~~~~~~~~/~~~~~~~~~~~~~~~~~~~~~~--|
|-X\~~~~~~~~~~~~~~~~~~~~~~~~~/~~~~~~~~~~~~~~~~~~~~~~--|
|----(PLEC SCRAPE)------------------------------------|
|-----------------------------------------------------|
|-----------------------------------------------------|



|-3-------0-------0-------2-----------3-H-5----3-------0-------0-------------------|
|-0-------0-------1-------3-----------3--------3-------0-------1-------0-----------|
|-0-------0-------2-------2-----------2--------0-------0-------0-------0-----------|
|-0-------2-------2-------0--------------------0-------2-------2-------0-----------|
|-2-------2-------0----------------------------2-------2-------3-------2-----------|
|-3-------0-------0----------------------------------------------------------------|

 

|------0---------------3--------2-------3--------------------------------------------|
|-(0)--0-------1-------3--------3-------0--------------------------------------------|
|-(0)--0-------2-------2--------2-------0----- <4-5 ---------------------------------|
|-(0)--2-------2-------0--------0-------0-----  SECS> -------------------------------|
|-(2)--2-------0------------------------2---------------------0------0--2--0--2--3---|
|--3---0--------------------------------3------------------3-----3-------------------|



|-3------------------------3---------------3-----2--------------------2-----------|
|-0----------------0-------3-------------3-------3--------------------1-----------|
|-0-------0--------0-------0-----------0---------2--------------2-----2-----------|
|-0-------0--------------------------------------0-------4------------0-----------|
|-2-------2-----------------------------------------------------------------------|
|-3-------------------------------------------------------------------------------|

 
[ Tab from: http://www.guitartabs.cc/tabs/j/jimi_hendrix/god_save_the_queen_tab.html ]
|-----2-----3---------------3-----(3)--/--7-------8-------3-------2--------0-----------|
|---1-------0-------------1-3-----(3)--/--7-------8-------3-------3--------1-----------|
|-2---------0-----------0---4-----(4)--/--8-------9-------4-------2--------0-----------|
|-----------0---------2-----5-----(5)--/--9-------10------5-------0--------2-----------|
|-----------2-------3-------5-----(5)--/--9-------10------5----------------3-----------|
|-----------3---------------3-----(3)--/--7-------8-------3----------------3-----------|

                                                    ()
                                                    ||______________________
|-H-1---P-0-------------------3--------3\--X--|     ||    ##############    |
|--(1)------------------------3--------3\--X--|     ||##     ########     ##|
|--(0)-------  ---------4--------4\--X--|     ||#####     ##     #####|
|--(2)------- 
Comments