Jimi Hendrix - Foxy Lady Chords & Tabs

 

Foxy Lady Chords & Tabs

Jimi Hendrix Chords & Tabs

Version: 3 Type: Bass Tab 0 ratings
1 star 2 stars 3 stars 4 stars 5 stars
comments

Foxy Lady Bass Tab

   
Song: Foxy Lady
Artist: Jimi Hendrix
Album: Are You Experienced?

Okay, this is a great, fast paced song that will fill you with energy. It's also very easy...

Tuning: G D A E
Time Signature: Unsure, I will edit this when I work it out.

Intro (First Verse)

|-------------------|----------||-------------------|----------|
|-------------------|----------||-------------------|----------|
|-----7-----7-----7-|----0-1-2-||-----7-----7-----7-|----0-1-2-|
|-0-0---0-0---0-0---|-3--------||-0-0---0-0---0-0---|-3--------|

"You know you a cute little..."

|-------------------|----------||-------------------|----------|
|-------------------|----------||-------------------|----------|
|-----7-----7-----7-|----0-1-2-||-----7-----7-----7-|----0-1-2-|
|-0-0---0-0---0-0---|-3--------||-0-0---0-0---0-0---|-3--------|

|-------------------|----------||-------------------|----------|
|-------------------|----------||-------------------|----------|
|-----7-----7-----7-|----0-1-2-||-----7-----7-----7-|----0-1-2-|
|-0-0---0-0---0-0---|-3--------||-0-0---0-0---0-0---|-3--------|

Chorus

"I wanna take you home..."

|-----------------------||-----------------------||-----------------------|
|-----------------------||-----------------------||-----------------------|
|-------------5-5-5-0-0-||-------------5-5-5-0-0-||-------------5-5-5-0-0-|
|--0--0--0--0-----------||--0--0--0--0-----------||--0--0--0--0-----------|


Second Verse

"Oooh Foxy Lady!"

|-----------------||-------------------|----------|
|-----------------||-------------------|----------|
|-----------------||-----7-----7-----7-|----0-1-2-|
|-----------------||-0-0---0-0---0-0---|-3--------|

                                 "I see you! All down on the..."

|-------------------|----------||-------------------|----------|
|-------------------|----------||-------------------|----------|
|-----7-----7-----7-|----0-1-2-||-----7-----7-----7-|----0-1-2-|
|-0-0---0-0---0-0---|-3--------||-0-0---0-0---0-0---|-3--------|

|-------------------|----------||-------------------|----------|
|-------------------|----------||-------------------|----------|
|-----7-----7-----7-|----0-1-2-||-----7-----7-----7-|----0-1-2-|
|-0-0---0-0---0-0---|-3--------||-0-0---0-0---0-0---|-3--------|
[ Tab from: http://www.guitartabs.cc/tabs/j/jimi_hendrix/foxy_lady_btab_ver_3.html ]
|------------------------------||
|------------------------------||
|-----7-----7-----7-|----0-1-2-||
|-0-0---0-0---0-0---|-3--------||


Chorus

"I've made up my mind!"

|-----------------------||-----------------------||-----------------------|
|-----------------------||-----------------------||-----------------------|
|-------------5-5-5-0-0-||-------------5-5-5-0-0-||-------------5-5-5-0-0-|
|--0--0--0--0-----------||--0--0--0--0-----------||--0--0--0--0-----------|

Solo

|-------------------|----------||-------------------|----------|
|-------------------|----------||-------------------|----------|
|-----7-----7-----7-|----0-1-2-||-----7-----7-----7-|----0-1-2-|
|-0-0---0-0---0-0---|-3--------||-0-0---0-0---0-0---|-3--------|

Chorus

"Gonna take you home!"

|-----------------------||-----------------------||-----------------------|
|-----------------------||-----------------------||-----------------------|
|-------------5-5-5-0-0-||-------------5-5-5-0-0-||-------------5-5-5-0-0-|
|--0--0--0--0-----------||--0--0--0--0-----------||--0--0--0--0-----------|

Last Verse (And Intro)

                  "Comin' to git ye!"

|---------------|--------------------|-------------------|---------|
|---------------|--------------------|-------------------|---------|
|---------------|--------------------|-----7-----7-----7-|---0-1-2-|
|---------------|--------------------|-0-0---0-0---0-0---|-3-------|

|-------------------|----------||-------------------|----------|
|-------------------|----------||-------------------|----------|
|-----7-----7-----7-|----0-1-2-||-----7-----7-----7-|----0-1-2-|
|-0-0---0-0---0-0---|-3--------||-0-0---0-0---0-0---|-3--------|

|-------------------|----------||-------------------|----------|
|-------------------|----------||-------------------|----------|
|-----7-----7-----7-|----0-1-2-||-----7-----7-----7-|----0-1-2-|
|-0-0---0-0---0-0---|-3--------||-0-0---0-0---0-0---|-3--------|

|-------------------|----------||-------------------|----------|
|-------------------|----------||-------------------|----------|
|-----7-----7-----7-|----0-1-2-||-----7-----7-----7-|----0-1-2-|
|-0-0---0-0---0-0---|-3--------||-0-0---0-0---0-0---|-3--------|

|-------------------|----------|
|-------------------|----------|
|-----7-----7-----7-|----0-1-2-|
|-0-0---0-0---0-0---|-3--------|
Comments