Jimi Hendrix - Changes Chords & Tabs

 

Changes Chords & Tabs

Jimi Hendrix Chords & Tabs

Version: 1 Type: Tab 0 ratings
1 star 2 stars 3 stars 4 stars 5 stars
comments

Changes Tab

   
CHANGES by Jimi Hendrix

(-)=ghost note
h=hammer on
p=pull off
>=slide
X=palm mute

This about 90% right. The solo is 100% as I got it from a tab book.

normal tuning E A D G B E

INTRO
---------------------------------0----(0)------------------------------|
-----------------------------------------------------------------------|
---12-11-------------------------12---12--------12-11------------------|
---0--(0)---12-11---11-12-13-14-----------------0--(0)---12-11---11-12-|
------------0--(0)---------------------------------------0--(0)--------|
-----------------------------------------------------------------------|
                 turn up volume      use wah-wah pedal
---------0----(0)--------------------------------------------------------|
-------------------------------------(12)---------15---------------------|
---------12---12----------------------12---------------------------------|
--13-14-----------------------14h12h14--14p12>10------------12-----------|
------------------------------------------------12--12h14h12--14p12>10---|
----------------------------------------------------------------------12-|
						      turn off wah-wah
-----------------------------------------------------7--|
---17------------------------------------------------7--|
--------------12----------16-------------------------7--|
------14h12h14--14p12>10-------------12-----------------|
------------------------12---12h14h12--14p12>10---------|
-12--------------------------------------------12-12----|

VERSE

------------------------------------------------7-7-7-----------------|
------------------------------------------------7-7-7-X---------------|
------------------------------------------------7-7-7-----------------|
----------------2-4-2-4-2-------------------2h4-----------------------|
------2----2-2h4---------------2-----(2)-2h4----------------2-----2h4-|
-0-0----0-----------------0-0-----0---------------------0-0---0-0-----|

-----------------------------0-(0)---|
-----------------------------0-(0)---|
-------------------------------------|
-2h4-2h4p2---------------------------|
---------------2---2h4-2h4p2-------2-|
-----------0-0---X-------------------| play throughout verse.

chorus1

-----------------------------------------------------------------|
-----------------------------(12)---------15---------------------|
------------------------------12---------------------------------|
3-3-3-3-4-4-4-5-5-5-5-14h12h14--14p12>10------------12-----------|
----------------------------------------12--12h14h12--14p12>10---|
1-1-1-1-2-2-2-3-3-3-------------------------------------------12-|
[ Tab from: http://www.guitartabs.cc/tabs/j/jimi_hendrix/changes_tab.html ]
-----------------------------------------------------7--|
---17------------------------------------------------7--|
--------------12----------16-------------------------7--|
------14h12h14--14p12>10-------------12-----------------|
------------------------12---12h14h12--14p12>10---------|
-12--------------------------------------------12-12----|

SOLO

---------12------------12---------------12-----12----------------12-|
---------12-15-(17)-17----17-12-------12--15-12--(15)-12-15-(17)----|
-14-(16)-----------------------14-(16)------------------------------|
--------------------------------------------------------------------|
--------------------------------------------------------------------|
--------------------------------------------------------------------|

----------12-15-(17)-15-12-(17)-15-12----------------------------------|
--15-(17)----------------------------15-(17)-(17)-12-------------------|
----------------------------------------------------14-(16)-14-(16)-14-|
-----------------------------------------------------------------------|
-----------------------------------------------------------------------|
-----------------------------------------------------------------------|

-------------------------15-(17)-15-15-(17)-15-(15)-(17)-15-15-12--15-|
------15-15------------------------------------------------------12---|
--(16)--(16)-14-12-----12---------------------------------------------|
------------------14-12-----------------------------------------------|
----------------------------------------------------------------------|
----------------------------------------------------------------------|

-(17)-15-12-14-12--12-----12-------12-----------------12--------------|
-----------------14---------15-(17)--15-12--------------15-(17)-------|
---------------------12-13----------------14-12--12-13----------15-16-|
----------------------------------------------------------------------|
----------------------------------------------------------------------|
----------------------------------------------------------------------|

------------------12-------12-12-12-12-12-12--------------------------|
-------15---12-14-14-12-14-14-12-15-15-15-12------------12-12-12---14-|
-15-14---12----------------------------------12-12-12-12---12---14-14-|
------------------------------------------------12--------------------|
----------------------------------------------------------------------|
----------------------------------------------------------------------|

-----------|
-----------|
-(14)-(15)-|14
-(14)-(15)-|14
-----------|
-----------|

E-0-0-3-0-0----------------------------------|
B-----------3-1---------3--------------------|
G---------------2---4-4---4-4-2-0------------|
D---------------------------------2----------|
A--------------------------------------------|
E--------------------------------------------|
Comments