Jim Stark - Morning Song Chords & Tabs

 

Morning Song Chords & Tabs

Jim Stark Chords & Tabs

Version: 1 Type: Tab 0 ratings
1 star 2 stars 3 stars 4 stars 5 stars
comments

Morning Song Tab

   
Great norwegian pop/rock band. This song is from the album "Morning Songs"
more info at http://www.jimstark.no/

-------------------------------------------------------------------------------
			     Morning Song - Jim Stärk
-------------------------------------------------------------------------------
Tabbed by:Espen Rian Skog	
Email:espen.skog@student.uib.no

Tuning:EADGBE

Organ Intro:
e|---------------------------------------------------------------------------|
B|--7h10-7---7---------------------------------------------------------------|
G|--x-----9---9-6-----x------------------------------------------------------|
D|--x-------------7-9-9/10-9-7-----------------------------------------------|
A|--x-----------------x---------9---7-9p7-9----------------------------------|
E|-------------------------------9-------------------------------------------|
				         The last 4 is later used as a fill 
and can be played like this:
[ Tab from: http://www.guitartabs.cc/tabs/j/jim_stark/morning_song_tab.html ]
				
e|---------------------------------------------------------------------------|
B|---------------------------------------------------------------------------|
G|---------------------------------------------------------------------------|
D|---2-4p2-4-----------------------------------------------------------------|
A|-4-------------------------------------------------------------------------|
E|---------------------------------------------------------------------------|
(The final note is usually replaced with a simple F#m chord downstroke.)

Verse: F#m B7 Bm 

Pre chorus: Doodle with a B7 chord
"tell me how to do this.."

Chorus:A B D
"ok for tomorrow..."


| /  slide up
| \  slide down
| h  hammer-on
| p  pull-off
| ~  vibrato
| +  harmonic
| x  Mute note
===============================================================================

Corrections, suggestions and general feedback ?.. mail me..
Comments