Jim Croce - Time In A Bottle Chords & Tabs

 

Time In A Bottle Chords & Tabs

Jim Croce Chords & Tabs

Version: 2 Type: Tab 0 ratings
1 star 2 stars 3 stars 4 stars 5 stars
comments

Time In A Bottle Tab

if you have any suggestions, please e-mail me @  tennisqueen73@hotmail.com



E--------5-----5----|-------5-----5----|-------5-----5----
B-----6-----6-----6-|----6-----6-----6-|----6-----6-----6-
G--7----------------|-6----------------|-5----------------
D-------------------|------------------|------------------
A-------------------|------------------|------------------
E-------------------|------------------|------------------
   4  3  2  3  2  3   4  3  2  3  2  3   1  3  2  3  2  3  

E--------5-----5----|-3-----0-----1----|-3-----1-----0----
B-----6-----6-----6-|-3--------3-----3-|----3-----3-----3-
G--4----------------|-3----------------|------------------
D-------------------|-roll-------------|------------------
A-------------------|------------------|------------------
E-------------------|------------------|------------------
   1  3  2  3  2  3   4        3  1  3   4  3  1  3     3
                      3
                      2

E--5-----7-----9----|-12----10----9----|----------1-------
B-------------------|------------------|-------3--------3-
G--6-----7-----9----|-12----10----9----|----2--------2----
D-------------------|------------------|-0----------------
A-------------------|-----------(hold)-|------------------
E-------------------|------------------|------------------
   1     3     3      3     3     3         2  3  1  2  3
   2     2     2      2     2     2
[ Tab from: http://www.guitartabs.cc/tabs/j/jim_croce/time_in_a_bottle_tab_ver_2.html ]
E-----------1-------|----------1-------|----------1-------
B--------2--------2-|-------1--------1-|-------0--------0-
G-----2--------2----|----2--------2----|----2--------2----
D--0----------------|-0----------------|-0----------------
A-------------------|------------------|------------------
E-------------------|------------------|------------------
      2  3  1  2  3      2  1  1  2  1      2  0  1  2  0

E-----------3-------|----------3-------|------------------
B--------3--------3-|-------3--------3-|-2-----3-----5----
G-----3--------3----|----3--------3----|------------------
D--0----------------|-0----------------|------------------
A-------------------|------------------|-0-----2-----4----
E-------------------|------------------|------------------
      2  3  4  2  3      2  3  4  2  3   2     3     3
                                               1     1

E-------------------|----------1-------|----------1-------
B--8-----6-----5----|-------3--------3-|-------1--------1-
G-------------------|----2--------2----|----2--------2----
D-------------------|-0----------------|-0----------------
A--7-----5-----4----|------------------|------------------
E-------------------|------------------|------------------
   3     3     3         2  3  1  2  3      2  1  1  2  1

E-----------3-------|----------3-------|----------1--------
B--------3--------3-|-------3--------3-|-------3--------3--
G-----3--------3----|----3--------3----|----2--------2-----
D--0----------------|-0----------------|-0-----------------
A-------------------|------------------|-------------------
E-------------------|------------------|-------------------
      2  3  4  2  3      2  3  4  2  3      2  3  1  2  3

E-----------3-------|------------------|-------------------
B--------3--------3-|-2-----3-----5----|-2~----0-----------
G-----3--------3----|------------------|-------------2-----
D-------------------|------------------|-------------------
A-------------------|-0-----2-----4----|-0-----------------
E--3----------------|------------------|-------------------
   1  1  1  1  1  1   2     3     3      2           2
                            1     1
Comments