Jewel - Who Will Save Your Soul Chords & Tabs

 

Who Will Save Your Soul Chords & Tabs

Jewel Chords & Tabs

Version: 2 Type: Bass Tab 0 ratings
1 star 2 stars 3 stars 4 stars 5 stars
comments

Who Will Save Your Soul Bass Tab

Jewel Kilcher - Who Will Save Your Soul
Tabbed By Matt Langdale (m_langdale@talk21.com)

This is a more accurate version of the existing tabs.  



Main Groove
[ Tab from: http://www.guitartabs.cc/tabs/j/jewel/who_will_save_your_soul_btab_ver_2.html ]
G---|-------------------------------------------------------|
D---|-------------------------------------------------------|
A---|--5------------5--3-33-33---5------------3--5-55--55---|
E---|-----5-55-55-------------------3-33-33-----------------|


BREAK   


G---|------------------------------------------------------------------|
D---|------------------------------------------------------------------|
A---|-----5/7--7--------5/7--7------------5/7-7---------5/7-7----------|
E---|--0---------0-00----------0-00--77---------0-00-----------0-5-7---|
Comments