Jewel - Hands Chords & Tabs

 

Hands Chords & Tabs

Jewel Chords & Tabs

Version: 1 Type: Tab 0 ratings
1 star 2 stars 3 stars 4 stars 5 stars
comments

Hands Tab

   
Jewel - Hands


Lower 1 key from normal key.

Intro:
|----------------------------------------9---------------------------------|
|----------10---------9-----------------------------10---------9-----------|
|-------11---------11--------9-11------11--------11---------11--------9-11-|
|----11---------11--------11--------11--------11---------11--------11------|
|--9----------9---------9---------9---------9----------9---------9---------|
|--------------------------------------------------------------------------|

[ Tab from: http://www.guitartabs.cc/tabs/j/jewel/hands_tab.html ]
Verse:
|-------5-------4-|-------2-------0-|-----------------|-------0-|
|-----7-------7---|-----3-------3---|-------2-------0-|-------0-|
|---6-------6-----|---2-------2-----|-----2-------2---|---------|
|-4-------4-------|-0-------0-------|---2-------2-----|-----2---|
|-----------------|-----------------|-0-------0-------|---2-----|
|-----------------|-----------------|-----------------|-0-------|


|-------5-------4-|-------2-------0-|-----------------|-------0---|
|-----7-------7---|-----3-------3---|-------2-------0-|---------0-|
|---6-------6-----|---2-------2-----|-----2-------2---|-----------|
|-4-------4-------|-0-------0-------|---2-------2-----|-----2-----|
|-----------------|-----------------|-0-------0-------|---2-------|
|-----------------|-----------------|-----------------|-0---------|


Bridge:
F#m, D, A, E  X2            

Chorus:
A, D, E  X3
A, E, F#m

* Solo is same as the intro.



From: V.Chiang 
Comments