Jewel - Hands Chords & Tabs

 

Hands Chords & Tabs

Jewel Chords & Tabs

Version: 1 Type: Bass Tab 0 ratings
1 star 2 stars 3 stars 4 stars 5 stars
comments

Hands Bass Tab

Jewel - Hands
Michele Caula (litilpunk@aol.com)


This is a good song to play....There are some fills at the end of some 
verses that I didn't add you could pretty much do what sounds good.
If there are any corrections let me know this is my first tab i'm posting. 
Have fun!

Verse1:
 * start after times like these:
|-------------------------------|-------------------------------|
|---3---------------6------1----|-----3-------------6--------1--|
|----------4--------------------|----------4--------------------|
|-------------------------------|-------------------------------|


Chorus:
My Hands:
|-----------------|---------------|------------------------|
|-6----8----------|-6------8------|-6------8---6--5--3-----|
|---6-------------|-----6---------|----6-------------------|
|-----------------|---------------|------------------------|

Quality:
[ Tab from: http://www.guitartabs.cc/tabs/j/jewel/hands_btab.html ]
|------------------------------|------------------------------|
|---3---------------6------1---|-----3-------------6--------1-|
|----------4-------------------|----------4-------------------|
|------------------------------|------------------------------|

|---3---------------6------1---|-----3-------------6--------1--|
|----------4-------------------|----------4--------------------|
|------------------------------|-------------------------------|


Chorus:
My Hands:
|----------------|---------------|---------------------|
|-6----8---------|-6------8------|-6------8---6--5--3--|
|---6------------|-----6---------|----6----------------|
|----------------|---------------|---------------------|

In the end...

|---------------|----------------|----------------|-----------------|
|-6-------------|-6--------------|-6--------------|-6---------------|
|---6---8---4---|-----6---8--4---|----6---8---4---|-----6---8---4---|
|---------------|----------------|----------------|-----------------|


Play chours untill she sings broken and it slows down.  then it's basicly 
this w/some fills till you want to end the song...


|--------------|
|--------------|
|-4----6---8---|
|--------------|

Lov, Peace and Sin!!
litilpunk@aol.com
Comments