Jewel - Break Me Chords & Tabs

 

Break Me Chords & Tabs

Jewel Chords & Tabs

Version: 1 Type: Tab 0 ratings
1 star 2 stars 3 stars 4 stars 5 stars
comments

Break Me Tab

Jewel-"Break Me"
From Jewel's new cd "This Way"
Standard Tuning
*Capo 1st fret*

Intro and Verse (On the cd she starts in the verse
but live she plays it with an intro)

Intro/Verse

e|-----0--|-----0--|-----0--|-----0--|
B|-3-----3|-3-----3|-3-----3|-3-----3|
G|---0----|---0----|---0----|---0----|
D|--------|--------|--------|--------|      
A|--------|--------|-2------|-3------|
E|-3------|-2------|--------|--------|

*Live Version Part*---The last time in the verse she ends with

e|----2------0-2-----3-2---|
B|--3-----3-----3-3-----3--|
G|-------------------------|
D|0------------------------|
A|-------------------------|
E|-------------------------|

Chorus
[ Tab from: http://www.guitartabs.cc/tabs/j/jewel/break_me_tab.html ]
e|-----0--|-----3--|-----3--|-----0--|*|-------3--|<---- that comes in the 
B|-------1|-------3|-------3|-------0|*|---------3|    2nd and 4th time you repeat
G|---0----|---2----|---0----|---0----|*|---0------|    the chorus
D|--------|-0------|--------|--------|*|----------|    
A|-3------|--------|--------|--------|*|----------|
E|--------|--------|-3------|-0------|*|0---------|

Bridge-

e|----0-------0---||----3--------3---||----0--------0---||-----2----3-| 
B|------1-------1-||------2--------2-||------0--------0-||---3---3----|
G|--2-------2-----||--0--------0-----||--0--------0-----||------------|       
D|----------------||-----------------||-----------------||0-----------|       
A|0-------0-------||-----------------||3--------3-------||------------|
E|----------------||3---------3------||-----------------||------------|

That's it!
Comments