Jettingham - Good Life Chords & Tabs

 

Good Life Chords & Tabs

Jettingham Chords & Tabs

Version: 1 Type: Tab 0 ratings
1 star 2 stars 3 stars 4 stars 5 stars
comments

Good Life Tab

   
Here is a very easy song by Jettingham.
Standard Tuning
E-mail me at GuitarFox@prodigy.net
Tabbed by Matt.
h=hammer
p=pull off

Intro:
   G                     D               C
e|---------------------|---------------|-----------------|
B|---------------------|---------------|-----------------|
G|---------------------|-7---7---7---7-|-5---5---5-5-5-5-|
D|-5---5---5-5-5-5-(x2)|-7---7---7---7-|-5---5---5-5-5-5-|
A|-5---5---5-5-5-5-----|-5---5---5---5-|-3---3---3-3-3-3-|
E|-3---3---3-3-3-3-----|---------------|-----------------|

   G                     D
e|---------------------|---------------|-----------------|
B|---------------------|---------------|-----------------|
G|---------------------|-7-------------|-----------------|
D|-5---5---5-5-5-5-----|-7(hold........................)-|
A|-5---5---5-5-5-5-(x2)|-5-------------|-----------------|
E|-3---3---3-3-3-3-----|---------------|-----------------|

Verse Riff:                                1st ending        2nd ending
e|---------------------|---------------|-----------------|---------------|
B|---------------------|---------------|-----------------|-7---5h7p5-----|
G|-4---4---------------|-5---5---------|-----------------|---------------|
D|(muted)-0-0-0-0-(x2)-|(muted)-0-0-0-0|(open)-0-0-0-0-0-|---------------|
A|---------------------|---------------|-----------------|---------------|
E|---------------------|---------------|-----------------|---------------|

Verse 1:
Some people are so afraid
Of letting life be exactly we wanted (1st ending)
But if you jst give yourself away
You may find it's what you make it (2nd ending)
It's just another day it's just another way
Still you don't know what to say (etc.)
Cause it's inside of you and it's inside of me
And I can show you the way (etc.)
[ Tab from: http://www.guitartabs.cc/tabs/j/jettingham/good_life_tab.html ]
Chorus:
G                    D           C         (strumming)
This is not what I'm supposed to feel like
G                            D     C
But after everything is gone I can say it's been a good life

Verse 2:
And if I die tomorrow, I die a happy man (1st ending)
I've accomplished everything I wanted, to some extent (2nd ending)
(pause)       (start riff again)
And you might, say that I'm a little too young to know for sure
But I do and that's alright(2nd ending)
I don't need advice from you or anyone, on how to live my life (2nd ending)

(Chorus)x2

Solo:
e|--------------------------------------------------------------------|
B|--------------------------------------------------------------------|
G|---------------------------0-2-4-5--7--9--7--9--5-4-2-0-------0-----|
D|--------------------------------------------------------4-2-4-------|
A|-2x--2x2x--2x2x2x-3x--3x3x------------------------------------------|
E|--------------------------------------------------------------------|

e|--------------------------------------------------------------------|
B|--------------------------------------------------------------------|
G|-2-----0-2-4-5--7--9--7--9-(x2)-------------------------------------|
D|--------------------------------------------------------------------|
A|--------------------------------------------------------------------|
E|--------------------------------------------------------------------|

Verse Riff:
Oh it's been a good life (x2) The first time play 1st ending then play 2nd
                              the next time
(Chorus)

Chorus 2:
G                                D
And all this time that you spent trying to figure
C
Out just what life meant
G                                D
It doesn't matter much now cause I know
C
It's been a good life

(Chorus)

That's all folks!!!
Comments