Jets To Brazil - Youre Having The Time Of My Life Chords & Tabs

 

Youre Having The Time Of My Life Chords & Tabs

Jets To Brazil Chords & Tabs

Version: 1 Type: Tab 0 ratings
1 star 2 stars 3 stars 4 stars 5 stars
comments

Youre Having The Time Of My Life Tab

   
------------------------------------------------------------------------------- 
              YOU'RE HAVING THE TIME OF MY LIFE - Jets to Brazil 
------------------------------------------------------------------------------- 

Intro 
e----------------------------------------------------------------------| 
B-----------8-------7~-------------------------------------------------| 
G---------5----5-------------------------------------------------------| 
D-------7--------7-----------------------2h4-2--0----------------------| 
A-----0----------------------------------------------------------------| 
E----------------------------------------------------------------------| 

00:28 
tremelo 
e-----|-----------------------------------------------------------------| 
B-----|-----------------------------------------------------------------| 
G-----|---7---9---12---14-----------------------------------------------| 
D--7~-|-----------------------------------------------------------------| 
A--0--|---5---7---10---12-----------------------------------------------| 
E-----|-----------------------------------------------------------------| 

Verse 
1st 2nd 
e---------------------------|---------|----------------------------------| 
B---------------------------|---------|----------------------------------| 
G----6----9----7-----5---9--|--5---7--|----5---7-------------------------| 
D----7----9----7-----7---9--|---------|----5---7-------------------------| 
A----7----7----5-----7---7--|--3---5--|----3---5-------------------------| 
E----5---------------5------|---------|----------------------------------| 

A E D A 
When you become a stranger again 
E C D 
how 
closed your eyes will be 

Chorus 
e----------------------------------------------------------------------| 
B----------------------------------------------------------------------| 
G-------7---5-----------------7----------------------------------------| 
D----5--7---5------5--5--2----7----------------------------------------| 
A----5--5---3------5--5--2----5----------------------------------------| 
E----3-------------3--2--0---------------------------------------------| 

guitar 2 
Fill 1 
e----------------|------------------------------------------------------| 
B----------------|------------------------------------------------------| 
G--12--11--9---7-|-12---------------------------------------------------| 
D----------------|------------------------------------------------------| 
A--10--9---7---5-|-10---------------------------------------------------| 
E----------------|------------------------------------------------------| 

your having the time of my life 

and i love you much to late 

e----------------------------------------------------------------------| 
B----------------------------------------------------------------------| 
G------0------0-----0-------0------------------------------------------| 
D----5------7-----9-------7--------------------------------------------| 
A--3------5-----7-------5----------------------------------------------| 
E----------------------------------------------------------------------| 

there are things id like to say 
so many things id like to change 

*play intro again* 

bluesy 80's rock solo lead break - order 1,2,1,3 
[ Tab from: http://www.guitartabs.cc/tabs/j/jets_to_brazil/youre_having_the_time_of_my_life_tab.html ]
1 2 3 
e-----------------------|--------------------|---------------------------| 
B-----------------------|--------------------|--------8--7---------------| 
G-----------5--5-5------|---------7-7-7p5----|---------------------------| 
D---7---5-7---------7-5-|--7--5-7---------7--|--------5--4---------------| 
A---5-------------------|--5-----------------|--3-5-3--------------------| 
E-----------------------|--------------------|---------------------------| 

(not sure about this bit) 
1:44 
e-----------------8----------------------------------------------| 
B-----------------8----------------------------------------------| 
G----------5-----------------------------------------------------| 
D----5-5h7--5h7--------------------------------------------------| 
A----------------------------------------------------------------| 
E----------------------------------------------------------------| 

verse 2 fill at 1:58 
e---------|-------------------------------------------------------------| 
B---------|-------------------------------------------------------------| 
G---2-----|-------------------------------------------------------------| 
D---0-----|-------------------------------------------------------------| 
A------3--|-------------------------------------------------------------| 
E---------|-------------------------------------------------------------| 

Bridge "If I had another last chance..." 
e-------2-------------------------------------------------------------| 
B-------3----------------5--------------------------------------------| 
G-------4----------------5--------------------------------------------| 
D-------4----------------5--------------------------------------------| 
A--7-5--2----------------3--------------------------------------------| 
E---------------------------------------------------------------------| 

guitar in time with vocals 

"if i had a no ther last chance 
e----------------------------------------------------------------------| 
B-----3-5--------------------------------------------------------------| 
G--4------4---2--0----------4---2--------------------------------------| 
D----------------------------------------------------------------------| 
A----------------------------------------------------------------------| 
E----------------------------------------------------------------------| 

"and we met again for the first time" 
e----------------------------------------------------------------------| 
B----------------------------------------------------------------------| 
G----------------5-----------------------------------------------------| 
D----------------5-----------------------------------------------------| 
A---5---4---3----3-----------------------------------------------------| 
E----------------------------------------------------------------------| 
p.m 

"I would listen to your heart..." 
e----------------------------------------------------------------------| 
B----------------------------------------------------------------------| 
G------0------0-----0-------0------------------------------------------| 
D----5------7-----9-------7-------2------------------------------------| 
A--3------5-----7-------5---------2------------------------------------| 
E---------------------------------0------------------------------------| 

-------------------------------------------------------------------------------
Comments