Jets To Brazil - Sweet Avenue Chords & Tabs

 

Sweet Avenue Chords & Tabs

Jets To Brazil Chords & Tabs

Version: 1 Type: Chords 0 ratings
1 star 2 stars 3 stars 4 stars 5 stars
comments

Sweet Avenue Chords

   
------------------------------------------------------------------------------- 
                          SWEET AVENUE - Jets To Brazil 
------------------------------------------------------------------------------- 

Intro 
E--0------------0 
B--0------------2 
G--1------4-----2 
D--2--4/6--6-4--2 
A--2------------0 
E--0------------- 

E A 
Tasting you in rain, I walk down to the train 
E A 
Trying not to look down 
E A 
This day could someday be an aniversary 
E A 
everything is light and sound 

E A 
Facing forwards going slowly wait for you to show me 
E A 
where this train wants to go 
E A 
living by the hour I stop for every flower 
E A 
everything is soft and slow 
Gbm A E 
now all these tastes improve through the view that comes with you 
Gbm A E 
like they handed me my life, for the first time it felt right 

Play Intro 
[ Tab from: http://www.guitartabs.cc/tabs/j/jets_to_brazil/sweet_avenue_crd.html ]
E A 
Thank you for making me see there's a life in me 
E A 
it was dying to get out 
E A 
holding you we make two spoons beneath an april moon 
E A 
everything is soft and sweet 
Gbm A E 
this cigarette it could seduce a nation with its smoke 
Gbm A E 
crawling down my tired throat scratches part of me that's purring 
A 
softly stirring 
E A 
I'm a captian of industry, smoking famously 
E A 
feet up on the window ceil 
E A 
looking at all these trees I feel affinity with everything so soft and still 
Gbm A E 
budding at my fingertips touching you I start to bloom 
Gbm A E 
alive with trains and passing ships soft and sweet along your lips now 
A 
I go oh wow 
E A 
Thank you for taking me from my monastary 
E A 
I was dying to get out 
E A 
with tears of gratitude I like my latitude 
E A 
cross-town train to you 

Gbm A E 
now all these tastes improve through the view that comes with you 
Gbm A E 
like they handed me my life for the first time it felt worth it, like I deserved it. 

Intro 4x 

E----4-5-4---------4-5-4-0 
B----------2-0-2---------2 
G------------------------2 
D------------------------2 
A------------------------- 
E--0-------------0-------- 

-------------------------------------------------------------------------------
Comments