Jets To Brazil - One Summer Last Fall Chords & Tabs

 

One Summer Last Fall Chords & Tabs

Jets To Brazil Chords & Tabs

Version: 1 Type: Tab 0 ratings
1 star 2 stars 3 stars 4 stars 5 stars
comments

One Summer Last Fall Tab

------------------------------------------------------------------------------- 
                   ONE SUMMER LAST FALL - Jets To Brazil 
------------------------------------------------------------------------------- 

By: Lee Diles. LDiles@aol.com for comments. 

e|----------------------| 
B|-------------------6--| 
G|------8------------8--| 
D|--5---8---5--------8--| 
A|--5---6---5------6-6--| 
E|--3-------3--6-5------| 

e|-------------------------------------------------[-------------]---| 
B|-----------------------------------3---3---3-----[-------------]---| 
G|------4--5------4--5--7------4-------4---5-------[--5----5----4]-2x| 2x 
D|--5---4--5---5--4--5--7--5---4---5---4---5---7---[-5----5------]---| 
A|--5---2--3---5--2--3--5--5---2---5---2---3---7---[3----6-----5-]---| 
E|--3----------3-----------3-------3-----------5---[----------3--]---| 

e|--------3---2---0---0--| 
B|--------3---3---0---1--| 
G|-----5--0---2---0---0--| 
D|--3--5--0---0---2---2--| 
A|--3--3--2-------2---3--| 
E|--1-----3-------0------| 

e|--------------| 
B|-----------6--| 
G|-----------8--| 
D|--5--------8--| 
A|--5------6-6--| 
E|--3--6-5------| 

e|-------------------------------------------------[-------------]---| 
B|-----------------------------------3---3---3-----[-------------]---| 
G|------4--5------4--5--7------4-------4---5-------[--5----5----4]-2x| 
D|--5---4--5---5--4--5--7--5---4---5---4---5---7---[-5----5------]---| 
A|--5---2--3---5--2--3--5--5---2---5---2---3---7---[3----6-----5-]---| 
E|--3----------3-----------3-------3-----------5---[----------3--]---| 
[ Tab from: http://www.guitartabs.cc/tabs/j/jets_to_brazil/one_summer_last_fall_tab.html ]
e|---------------------------------------------------------------------------| 
B|---------------------------------------------------------------------------| 
G|--4-2-0-2-0----------------------------------------------------------------| 
D|---------------------------------------------------------------------------| 
A|---------------------------------------------------------------------------| 
E|---------------------------------------------------------------------------| 

e|--------3---2---0---0--| 
B|--------3---3---0---1--| 
G|-----5--0---2---0---0--| 
D|--3--5--0---0---2---2--| 
A|--3--3--2-------2---3--| 
E|--1-----3-------0------| 

e|--3--3--0--0-----------3--3--0--2-----------| 
B|--3--3--0--1-----------3--3--0--3-----------| 
G|--0--0--0--0--2x then--0--0--0--2--5--8-----| 
D|--0--0--2--2-----------0--0--2--0--5--8--5--| 
A|--2--x--2--3-----------2--x--2-----3--6--5--| 
E|--3--2--0--------------3--2--0-----------3--| 

e|---------2--0-----------2--0--0--| 
B|---------3--0-----------3--0--1--| 
G|--5------2--0-----5-----2--0--0--| 
D|--5---5--0--2--3--5--5--0--2--2--| 
A|--3---5-----2--3--3--5-----2--3--| 
E|------3-----0--1-----3-----0-----| 

e|---------------------------| 
B|--------------------8--11--| 
G|------10-------10---0--0---| 
D|--5---8----5---8-----------| 
A|--5---6----5---6-----------| 
E|--3--------3---------------| 

e|-----| 
B|-----| 
G|--5--| 
D|--5--| 
A|--3--| 
E|-----| 

e|--3--3--0--0-----------3--3--0--2-----------| 
B|--3--3--0--1-----------3--3--0--3-----------| 
G|--0--0--0--0--2x then--0--0--0--2--5--8-----| 
D|--0--0--2--2-----------0--0--2--0--5--8--5--| 
A|--2--x--2--3-----------2--x--2-----3--6--5--| 
E|--3--2--0--------------3--2--0-----------3--| 

That is all for the guitar parts. There is a lot of keyboard in there too, 
but I didn't feel like writing that in. If you really want it, e-mail me at 
LDiles@aol.com 
===============================================================================
Comments