Jets To Brazil - Empty Picture Frame Chords & Tabs

 

Empty Picture Frame Chords & Tabs

Jets To Brazil Chords & Tabs

Version: 3 Type: Tab 0 ratings
1 star 2 stars 3 stars 4 stars 5 stars
comments

Empty Picture Frame Tab

   
------------------------------------------------------------------------------- 
                      EMPTY PICTURE FRAME - Jets To Brazil 
------------------------------------------------------------------------------- 

buttcircus@aol.com 

D 
i just found the frame 
G 
where I took your picture away 
D 
and in my wallet 
A 
like a saint from some other place 
D D7 
that picture repays 
G Gm 
my eyes as they glaze 
D 
a thousand lashes 
A D 
from a love long gone away 

G Gm 
iíll know that youíre gone for good 
D 
when the dawn kicks me awake 
A G D 
iíll dress and move on put on what i can take 
Em F#m G Gm 
so take and get on you sweet thing 
D 
thereís a phone call aimed at me tonight 

E-------------------------------2--------- 2-------------------3 
B----------------------------3----3-----1----1--------3--------3 
G-----------0--------0-----------------------------4----4------3 
D--------0--------0----0--0----------0----------5--------------0 
A-----2--------1-----------------------------------------------X 
E--3-----------------------------------------------------------3 
here it comes, out go my lights 
D A D 
leaves me nowhere far out of sight 
[ Tab from: http://www.guitartabs.cc/tabs/j/jets_to_brazil/empty_picture_frame_tab_ver_3.html ]
D G 
now iíve got the frame and some baggage i claimed 
D A 
i came home to a world sadly changed 
D D7 G Gm 
so i got stoned until i thought this house a home 
D A D 
but when i came down i found myself alone 
G Gm 
iíll know that youíre gone for good 
D 
when the dawn kicks me alive 
A G D 
i know weíll go on somehow weíll both survive 
Em F#m G Gm 
so take and get on you sweet thing 

E------------------------------------------------------- 
B-------------------3----------------------------------- 
G---------------2------2-------------------------------- 
D------------0------------------------------------------ 
A------------------------------------------------------- 
E------------------------------------------------------- 
tonight youíll find me alone and getting high 

E-------------------------------2--------- 2-------------------3 
B----------------------------3----3-----1----1--------3--------3 
G-----------0--------0-----------------------------4----4------3 
D--------0--------0----0--0----------0----------5--------------0 
A-----2--------1-----------------------------------------------X 
E--3-----------------------------------------------------------3 
up we float, down i fly 

D A D G 
leave me nowhere, far out of sight 
D A D G 
leave me nowhere, far out of sight 
D A Gm G D 
leave me nowhere, far out of s i g h t. 
-------------------------------------------------------------------------------
Comments