Jets To Brazil - All Things Good And Nice Chords & Tabs

 

All Things Good And Nice Chords & Tabs

Jets To Brazil Chords & Tabs

Version: 1 Type: Tab 0 ratings
1 star 2 stars 3 stars 4 stars 5 stars
comments

All Things Good And Nice Tab

Jets To Brazil
All Things Good And Nice
Four Cornered Night
Words and music by Blake Schwarzenbach

Standard tuning

NOTES: This is a VERY SIMPLE piano driven song. So you can 
       either use the root notes, or you can use the chords
       i put down for a bit bigger and fuller sound.
       It sounds pretty good either way. This is a nice song.

Keyboard intro (arranged for guitar) - 2x
e-----------------------------------------------|
B-----------------------------------------------|
G--8-8-8-8-10-10-10-10-11-11-11-11-11-11-11-11--|
D-----------------------------------------------|
A-----------------------------------------------|
E--11~------9~----------7~----------------------|

Verse
e---------------------------------------------------------------------------------------|
B---------------------------------------------------------------------------------------|
G--6------------6----------8--------------------4---------4--------6-----------------6--|
D--8------------8----------8--------------------4---------4--------6-----------------8--|
A--9------------8----------6--------------------2---------2--------4-----------------9--|
E---------------------------------------------------------------------------------------|
      I love my mother for all the things she's not            But mostly for who she is
      I love my father for all the things he's  thought        But really for the things he did
      I love my piano though i wasn't ever taught              Still i think i'm gonna live

Chorus
e--0----------------------------2-------|
B--0-----------4----------------2-------|
G--1-----------4----------------3-------|
D--2-----------4----------------4-------|
A--2-----------2----------------4-------|
E--0----------------------------2-------|
      All things to those who wait
      Take time to find your way

e----------------------------------------------------|
B----------------------------------------------------|
G--4---------------6--------6-----------------4------|
D--4---------------6--------8-----------------4------|
A--2---------------4--------9-----------------2------|
E----------------------------------------------------|
      Half the answers will come from your mistakes

e----------------------------------------------------|
B----------------------------------------------------|
G--4-------------------6---------------------6-------|
D--4-------------------6---------------------8-------|
A--2-------------------4---------------------9-------|
E----------------------------------------------------|
      Even when you're wrong i think you're great

Verse 2 (same as first)
I love my brother he's always taking shit, He's just not like those other kids
I love my sister for always making things, She even made a brother out of me, sweet kid
I love this feeling like i've got something to give, You know i think i'm gonna live

Chorus (same as first)
All things to those who wait
Take time to find your way
Some will say the truth is not so plain
Don't confuse the truth with your pain

Bridge

Keyboard intro - 2x

Riff - 2x
e-------------------------|
B-------------------------|
G-------------------------|
D--8b9r8------------4-----|
A------------4------2-----|
E-------------------------|

e------------------------------------------------------|
B------------------------------------------------------|
G--6---------------------6-----------------4-----------|
D--6---------------------6----8------------4-----------|
A--4---------------------5----9------------2-----------|
E-----------------------------9------------------------|
      You can take a line and say it isn't straight

e--------------------2---------------------------|
B--------------------3---------------------------|
G--4-----------------4-------------------6-------|
D--4-----------------4-------------------8-------|
A--2-----------------2-------------------9-------|
E------------------------------------------------|
      But that ain't gonna change it's shape
[ Tab from: http://www.guitartabs.cc/tabs/j/jets_to_brazil/all_things_good_and_nice_tab.html ]
Verse
e-----------------------------------------------------------------------------------------------------|
B-----------------------------------------------------------------------------------------------------|
G--6------------6----------8--------------------4---------4---------------6------------------------6--|
D--8------------8----------8--------------------4---------4---------------6------------------------8--|
A--9------------8----------6--------------------2---------2---------------4------------------------9--|
E-----------------------------------------------------------------------------------------------------|
      I love my drummer and all the things he plays         I wrote it in half-time just to say thanks

e----------------------------------------------------------------------------------------------------------|
B----------------------------------------------------------------------------------------------------------|
G--6------------6------------8----------------4---------4----------------------6------------------------6--|
D--8------------8------------8----------------4---------4----------------------6------------------------8--|
A--9------------8------------6----------------2---------2----------------------4------------------------9--|
E----------------------------------------------------------------------------------------------------------|
      I love my bassist represent the Western states       I think they sent an angel from the old Salt Lake

e----------------------------------------------------------------------|
B----------------------------------------------------------------------|
G----------------------6----------8------------------------------------|
D--8b9r8---------------8----------8---------------8--------------------|
A----------------------8----------6---------------9-8----11-------13---|
E-----------------------------------------------------7/9----9/11------|
          I love my guitarist his chops from outer space

e----------------------------------------------------|
B----------------------------------------------------|
G--4-----------------6------------------------6------|
D--4-----------------6------------------------8------|
A--2-----------------4------------------------9------|
E----------------------------------------------------|
      He can make my three chords sound like eight

Third Chorus
e--0----------------------------2-------|
B--0-----------4----------------2-------|
G--1-----------4----------------3-------|
D--2-----------4----------------4-------|
A--2-----------2----------------4-------|
E--0----------------------------2-------|
      All things to those who wait
      Take time to find your way
      All the things to those who wait
      Take time to find your way

Final Verse
e-----------------------------------------------------------|
B-----------------------------------------------------------|
G--4-------------6---------6--------------4-----------------|
D--4-------------6---------8--------------4-----------------|
A--2-------------4---------9--------------2-----------------|
E-----------------------------------------------------------|
      To all the bands who mean what they say:
e----------------------------------------------------|
B----------------------------------------------------|
G--4-------------------6---------------------6-------|
D--4-------------------6---------------------8-------|
A--2-------------------4---------------------9-------|
E----------------------------------------------------|
      It's not what you sell its what you make.
                                                    Piano (arranged for guitar)
e--------------------------------------------------|------------------------------------------|
B--------------------------------------------------|------------------------------------------|
G--6-------------6--------8-------------------4----|----4-------------------6-------------6---|
D--8-------------8--------8-------------------4----|----4-------------------6-------------8---|
A--9-------------8--------6-------------------2----|----2-------------------4-------------9---|
E--------------------------------------------------|------------------------------------------|
      I love you stranger it might not always show         There's a lot of good in you i know

That's it! Woohoo!
Comments