Jets Overhead - Heading For Nowhere Chords & Tabs

 

Heading For Nowhere Chords & Tabs

Jets Overhead Chords & Tabs

Version: 1 Type: Tab

Heading For Nowhere Tab

   
HEADING FOR NOWHERE - JETS OVERHEAD

Tabbed by: Dave

Tuning: Standard

intro (0:08)
e|----------------------------------------------|
B|----------------------------------------------|
G|-9--------------9-----------------------------|
D|---10-9-----------10-9------------------------|
A|--------10-10-9--------10-10-9----------------|
E|----------------------------------------------|

pre-chorus (0:56)
e|----------------------------------------------|
B|----------------------------------------------|
G|----------------------------------------------|
D|----------------------------------------------|
A|-3-3-3-3-7-7-7-7-5-5-5-5-5-5-5-5--------------|
E|----------------------------------------------|

e|----------------------------------------------|
B|-5-5-5-5-8-8-8-8-7-7-7-7-7-7-7-7--------------|
G|----------------------------------------------| 
D|----------------------------------------------| x3
A|-3-3-3-3-7-7-7-7-5-5-5-5-5-5-5-5--------------|
E|----------------------------------------------|

2nd guitar pre-chorus (1:12)
e|----------------------------------------------|
B|----------------------------------------------|
G|----------------------------------------------|
D|-5-0-2----------------------------------------| x8
A|----------------------------------------------|
E|----------------------------------------------|

chorus (1:28)
   C     G    D
e|-8-----3----10--------------------------------|
B|-8-----3----10--------------------------------|
G|-9-----4----11--------------------------------|
D|-10-x4-5-x4-12-x4-----------------------------| x2
A|-10----5----12--------------------------------|
E|-8-----3----10--------------------------------|
[ Tab from: http://www.guitartabs.cc/tabs/j/jets_overhead/heading_for_nowhere_tab.html ]
pre-chorus (2:16)
e|----------------------------------------------|
B|-5-5-5-5-8-8-8-8-7-7-7-7-7-7-7-7--------------|
G|----------------------------------------------| 
D|----------------------------------------------| x2
A|-3-3-3-3-7-7-7-7-5-5-5-5-5-5-5-5--------------|
E|----------------------------------------------|

chorus (2:32)
   C     G    D
e|-8-----3----10--------------------------------|
B|-8-----3----10--------------------------------|
G|-9-----4----11--------------------------------|
D|-10-x4-5-x4-12-x4-----------------------------| x2
A|-10----5----12--------------------------------|
E|-8-----3----10--------------------------------|

solo (2:48)
e|-------------------------------------------------------------------------|
B|-15-17-17-15-17-17-12-15-15-12-13-13-10-12-12-8-8-7-8-10-7-8-7-----------|
G|---------------------------------------------------------------7---------|
D|-------------------------------------------------------------------------|
A|-------------------------------------------------------------------------|
E|-------------------------------------------------------------------------|

e|-------------------------------------------------------------------------|
B|-15-17-17-17-20-20-15-17-17-12-15-15-10-12-12-12-13-12-10-12-8-10-7-8----|
G|-------------------------------------------------------------------------|
D|-------------------------------------------------------------------------|
A|-------------------------------------------------------------------------|
E|-------------------------------------------------------------------------|

chorus (3:04)
   C     G    D
e|-8-----3----10--------------------------------|
B|-8-----3----10--------------------------------|
G|-9-----4----11--------------------------------|
D|-10-x4-5-x4-12-x4-----------------------------| x4
A|-10----5----12--------------------------------|
E|-8-----3----10--------------------------------|

outro (3:36)
e|----------------------------------------------|
B|-5-5-5-5-8-8-8-8-7-7-7-7-7-7-7-7--------------|
G|----------------------------------------------| 
D|----------------------------------------------| x2
A|-3-3-3-3-7-7-7-7-5-5-5-5-5-5-5-5--------------|
E|----------------------------------------------|

the end