Jethro Tull - Heavy Horses Chords & Tabs

 

Heavy Horses Chords & Tabs

Jethro Tull Chords & Tabs

Version: 2 Type: Bass Tab 0 ratings
1 star 2 stars 3 stars 4 stars 5 stars
comments

Heavy Horses Bass Tab

Heavy Horses
Jethro Tull
                                              Transcribed by Paul Sipio
      0:00
G---||-----------------------||----------------|-----------------------
D---||*-3-3--2-0----0---0-2-*||-0-2-3--0---0-2-|-3-3--2-0--------0---0-
A---||*----------1----1-----*||----------1-----|----------1--1-1---1---
E---||-----------------------||----------------|-----------------------


G---|------------|------------------2-|-2--5--7-5-7--7-5-3---|---------
D-2-|-3-3--2-0---|-0-2-3--2-3-5-3-5---|--------------------3-|---------
A---|----------1-|--------------------|----------------------|---------
E---|------------|--------------------|----------------------|-5--5-6--


G---------------|----------------------|-------------------|-12/2---2-|
D---------------|----------------------|-------------3-2-0-|----------|
A---------------|----------------------|-------------------|----------|
E-5-3--1--3-5-3-|-1--3--5-6-5--6-5-3-1-|-3-5-3--1--3-------|----------|

     0:39                                                                
G---|-7----------7-|-7--------------|---7---------|-7------------|-----
D---|---7p5--------|---7-5----5h7-5-|-7---7-5-----|---7-5----7-5-|-(5)-
A---|-------8-5----|--------8-------|---------8-5-|-------8------|-----
E---|--------------|----------------|-------------|--------------|-----

                                                  Piano & Vocals  2:12
G-----|--------------|--------------------------|----------------|-7---
D-7-7-|-8--7-5-----5-|-6-5-------5--------------|----------------|-----
A-----|--------8-8---|-----8-7-8---8p5-5--------|----------------|-----
E-----|--------------|--------------------8p7-5-|----------------|-----
[ Tab from: http://www.guitartabs.cc/tabs/j/jethro_tull/heavy_horses_btab_ver_2.html ]
     
G---------7-|-7---------------|---7---------|-7------------|----------|
D-7p5-------|---7-5-----5h7-5-|-7---7-5-----|---7-5----7-5-|-(5)--7-7-|
A-----8-5---|--------8--------|---------8-5-|-------8------|----------|
E-----------|-----------------|-------------|--------------|----------|

                                               Guitar & Vocals  3:36
G---|--------------|-------------------------|-----------------|-7-----
D---|-8--7-5-----5-|-6-5-------5-------------|-----------------|---7p5-
A---|--------8-8---|-----8-7-8---8p5-5-------|-----------------|-------
E---|--------------|-------------------8p7-5-|-----------------|-------


G-----7-|-7---------------|---7---------|-7------------|---------|-----
D-------|---7-5-----5h7-5-|-7---7-5-----|---7-5----7-5-|-(5)-7-7-|-8-7-
A-8-5---|--------8--------|---------8-5-|-------8------|---------|-----
E-------|-----------------|-------------|--------------|---------|-----

                                     3:55 Violin & Guitar  4:06       
G---------|-------------------------|---------------------|-5-5-3-----|
D-5-----5-|-6-5-------5-------------|---------------------|-------6p3-|
A---8-8---|-----8-7-8---8p5-5-------|---------------------|-----------|
E---------|-------------------8p7-5-|---------------------|-----------|

G---|-------------|-------------|-------------|---------------5-3-----|
D---|-------------|-------------|-------------|-------------------6p3-|
A---|-------------|-------------|-------------|-----------------------|
E---|-6-6-6-6-4-6-|-6-6-6-6-4-6-|-6-6-6-6-4-6-|-6--6--6--6------------|


G---|-------------|-------------|-------------|-------------|----------
D---|-------------|-------------|-------------|-------------|----------
A---|-------------|-------------|-------------|-------------|----------
E---|-6-6-6-6-6-6-|-6-6-6-6-4-6-|-6-6-6-6-4-6-|-6-6-6-6-4-6-|----------
Comments