Jethro Tull - Bungle In The Jungle Chords & Tabs

 

Bungle In The Jungle Chords & Tabs

Jethro Tull Chords & Tabs

Version: 2 Type: Tab 0 ratings
1 star 2 stars 3 stars 4 stars 5 stars
comments

Bungle In The Jungle Tab

   
-------------------------------------------------------------------------------
			     Bungle in the Jungle - Jethro Tull
-------------------------------------------------------------------------------
Tabbed by: R8:31b

Tuning:Standard



Intro w/Jungle sounds
e|-------------------------|-----------------------|-------------------------|---------------------|
B|--3--2--3----2---2--3--2-|---------------------2-|--3--2--3----2---2--3--2-|-------------------2-|
G|-------------------------|--4--3--4----4--2--4---|-------------------------|--4--3--4----4-3-4---|
D|-------------------------|-----------------------|-------------------------|---------------------|
A|-------------------------|-----------------------|-------------------------|---------------------|
E|-------------------------|-----------------------|-------------------------|---------------------|
 |
e|-14-12-14-12h17-12-12h14-|--------------------12-|-14-12-14-12h17-12-12h14-|------------------12-|
B|-------------------------|-15-14-15--15-14-14----|-------------------------|-15-14-15--15--15----|
G|-------------------------|-----------------------|-------------------------|---------------------|
D|-------------------------|-----------------------|-------------------------|---------------------|
A|-------------------------|-----------------------|-------------------------|---------------------|
E|-------------------------|-----------------------|-------------------------|---------------------|



                                                     1st - 3rd Verses 
e|-------------------------|-----------------------||-----------------|--------------------|
B|--3--2--3----2---2--3--2-|-----------------------||-----------------|--------------------|
G|-------------------------|--4--3--4--------------||-----------------|----------------7---|
D|-------------------------|-----------------------||-----------------|--------------8---9-|
A|-------------------------|-----------------------||------------9--9-|-7--5--7-\\-9-------|
E|-------------------------|-----------------------||-7--5--7---------|--------------------|
 |                                                 ||
e|-14-12-14-12h17-12-12h14-|-----------------------||-----------------|
B|-------------------------|-15-14-15---15-14-12---||-----------------|
G|-------------------------|--------------------14-||-16--------------|
D|-------------------------|-----------------------||-----------------|
A|-------------------------|-----------------------||-----------------|
E|-------------------------|-----------------------||-----------------|



e|----------------|--------------------|--2---2-2---5-5--|--2---2-2---5-5--|
B|----------------|----------------3---|--2---2-2---5-5--|--3---3-3---5-5--|
G|----------------|--------------3---4-|--3---3-3---6-6--|--4---4-4---6-6--|
D|----------------|------------4-------|--4---4-4---7-7--|--4---4-4---7-7--|
A|-----------9--9-|-7--5--7-\\---------|--4---4-4---7-7--|--2---2-2---7-7--|
E|-7--5--7--------|--------------------|--2---2-2---5-5--|------------5-5--|


e|--2---2-2---5-5--|--2---2-2---5-5----|--2---2-2---5-5--|--2---2-2---5-5--|
B|--2---2-2---5-5--|--3---3-3---5-5----|--2---2-2---5-5--|--3---3-3---5-5--|
G|--3---3-3---6-6--|--4---4-4---6-6----|--3---3-3---6-6--|--4---4-4---6-6--|
D|--4---4-4---7-7--|--4---4-4---7-7----|--4---4-4---7-7--|--4---4-4---7-7--|
A|--4---4-4---7-7--|--2---2-2---7-7----|--4---4-4---7-7--|--2---2-2---7-7--|
E|--2---2-2---5-5--|------------5-5----|--2---2-2---5-5--|------------5-5--|
 |
e|-----------------|-----------10h9p10-h-12~~~~~~~~~~~~--|
B|-----------------|-------------------|-----------------|
G|-----------------|-------------------|-----------------|
D|-----------------|-------------------|-----------------|
A|-----------------|-------------------|-----------------|
E|-----------------|-------------------|-----------------|



e|--2---2-2---5-5--|--2-----5-------x--|-----------------||
B|--2---2-2---5-5--|--3-----5-------x--|--4-----------4--||
G|--3---3-3---6-6--|--4-----6-------x--|--4-----------4--||
D|--4---4-4---7-7--|--4-----7-------x--|--4-----------4--||
A|--4---4-4---7-7--|--2-----7-------x--|--2-----------2--||
E|--2---2-2---5-5--|--------5-------x--|-----------------||

Chorus
e|--3---3--------2-|-------------2-----|--3--------------|---------------------|
B|--3---3----2---3-|-------------3-----|--3---2-------4--|---------4--2--4-----|
G|--4---4----2---2-|-------------2-----|--4---2-------4--|---------4--2--4-----|
D|--5---5----2---0-|-------------0-----|--5---2-------4--|---------4--2--4-----|
A|--5---5----0-----|-------------------|--5---0-------2--|---------2--0--2-----|
E|--3---3----------|-------------------|--3--------------|---------------------|

                                        1._____________________________________
e|--3---3--------2-|-------------2-----|--3--------------|-------------------||
B|--3---3----2---3-|-------------3-----|--3------2---2---|------------4------||
G|--4---4----2---2-|-------------2-----|--4------2---2---|--4-4--4-4--4-----o||
D|--5---5----2---0-|-------------0-----|--5------2---2---|--4-4--4-4--4-----o||
A|--5---5----0-----|-------------------|--5------0---0---|--2-2--2-2--2------||
E|--3---3----------|-------------------|--3--------------|-------------------||
[ Tab from: http://www.guitartabs.cc/tabs/j/jethro_tull/bungle_in_the_jungle_tab_ver_2.html ]
2._________________                    Interlude
e|--3---3--------2-|------------------|-------------------|--------------------||
B|--3---3----2---3-|--3h5-3-----------|-------------------|--------------------||
G|--4---4----2---2-|---------4~~~~~~~-|-------------------|-------------------o||
D|--5---5----2---0-|------------------|-2h4-2-4---2-2-4-2-|-----------------2-o||
A|--5---5----0-----|------------------|-------------------|-5-4-5----5-4-5-----||
E|--3---3----------|------------------|-------------------|--------------------||


Interlude cont.
e|------------------|-----------------|-----------------|-----------------|
B|----------2-2-3-2-|---------------2-|---------2-2-3-2-|---------------2-|
G|-4-2-4~~~---------|-4-2-4~~~4-2-4---|-4-2-4~~~--------|-4-2-4~~~4-2-4---|
D|------------------|-----------------|-----------------|-----------------|
A|------------------|-----------------|-----------------|-----------------|
E|------------------|-----------------|-----------------|-----------------|
 |
e|------------------|---------------2-|-----------------|---------------2-|
B|-3-2-3----5-5-7-5-|-3-2-3---3-2-3---|-3-2-2---5-5-7-5-|-3-2-3---3-2-3---|
G|------------------|-----------------|-----------------|-----------------|
D|------------------|-----------------|-----------------|-----------------|
A|------------------|-----------------|-----------------|-----------------|
E|------------------|-----------------|-----------------|-----------------|


e|------------------|-----------------|--3--------------|-----------------------||
B|----------5-5-7-5-|-----------------|--3------2--2----|-----------------------||
G|-4-2-4~~~---------|-4-2-4~~~~-------|--4------2--2----|-4-4--4-4--4--4--4--4--||
D|------------------|-----------------|--5------2--2----|-4-4--4-4--4--4--4--4--||
A|------------------|-----------------|--5------0--0----|-2-2--2-2--2--2--2--2--||
E|------------------|-----------------|--3--------------|-----------------------||
 |
e|------------------|-----------------|-----------------|-------------------------------|
B|-3-2-3~~~-2-2-3-2-|-3-2-3~~~~-------|-----------------|-------------------------------|
G|------------------|-----------------|-----------------|---------14--------------------|
D|------------------|-----------------|-----------------|--12-14b---16-14-14-12bh14-12b-|
A|------------------|-----------------|-----------------|-14----------------------------|
E|------------------|-----------------|-----------------|-------------------------------|


Outro-Chorus
e|--3---3--------2-|-------------2-----|--3--------------|---------------------|
B|--3---3----2---3-|-------------3-----|--3---2-------4--|---------4--2--4-----|
G|--4---4----2---2-|-------------2-----|--4---2-------4--|---------4--2--4-----|
D|--5---5----2---0-|-------------0-----|--5---2-------4--|---------4--2--4-----|
A|--5---5----0-----|-------------------|--5---0-------2--|---------2--0--2-----|
E|--3---3----------|-------------------|--3--------------|---------------------|
 |
e|-----------------|-------------------|---------10------|---------------------------|
B|-----------------|-------------------|-----------12----|-----10--------------------|
G|-----------------|-------------------|---------------13b---11----------------------|
D|-----------------|-------------------|-----------------|--------12h14p12-----------|
A|-----------------|-------------------|-----------------|----------------14--12--14-|
E|-----------------|-------------------|-----------------|------------------14-------|

                                        
e|--3---3--------2-|-------------2-----|--3--------------|---------------------|
B|--3---3----2---3-|-------------3-----|--3------2---2---|---------------4-----|
G|--4---4----2---2-|-------------2-----|--4------2---2---|---4-----4-4---4-----|
D|--5---5----2---0-|-------------0-----|--5------2---2---|---4-----4-4---4-----|
A|--5---5----0-----|-------------------|--5------0---0---|---2-----2-2---2-----|
E|--3---3----------|-------------------|--3--------------|---------------------|
 |
e|-----------------|-------------------|-----------------|--10-----------------|
B|-----------------|-------------------|-----------------|----12---------------|
G|-----------------|-------------------|-----------------|---------------------|
D|-----------------|-------------------|-----------------|--------12--9\-------|
A|-----------------|-------------------|-----------------|---------------------|
E|-----------------|-------------------|-----------------|---------------7-5-7-|



e|--3---3--------2-|-----2-------2-----|--3--------------|||
B|--3---3----2---3-|-----3-------3-----|--3---2-------4--|||
G|--4---4----2---2-|-----2-------2-----|--4---2-------4--|||
D|--5---5----2---0-|-----0-------0-----|--5---2-------4--|||
A|--5---5----0-----|-------------------|--5---0-------2--|||
E|--3---3----------|-------------------|--3--------------|||
 |
e|-----------------|-------------------|---------/5~~~~~~|||
B|-----------------|-------------------|-----------------|||
G|-----------------|-------------------|-----------------|||
D|-----------------|-------------------|-----------------|||
A|-----------------|-------------------|-----------------|||
E|-----------------|-------------------|-----------------|||


************************************

| /   slide up
| \   slide down
| h   hammer-on
| p   pull-off
| ~   vibrato
| +   harmonic
| x   Mute note
| b   Full-Bend
| pb  Pre-bend
| br  Bend release
| pbr Pre-bend release
| brb Bend release bend

************************************
Comments