Jet - Rollover Dj Chords & Tabs

 

Rollover Dj Chords & Tabs

Jet Chords & Tabs

Version: 5 Type: Tab 0 ratings
1 star 2 stars 3 stars 4 stars 5 stars
comments

Rollover Dj Tab

   
Intro (0:00)
  C  D     D     C  D     C    C     G  G
e------------------------------------------|
B------------------------------------12-12-|
G-9--11----11----9--11----9----9-----12-12-|
D-10-12----12----10-12----10---10----12-12-|
A-10-12----12----10-12----10---10----10-10-|
E-8--10----10----8--10----8----8-----------|
  C  D     D     C  D     C     C     G G
e-----------------------------------------|
B-----------------------------------------|
G-9--11----11----9--11----9-----9-----4-4-|
D-10-12----12----10-12----10----10----5-5-|
A-10-12----12----10-12----10----10----5-5-|
E-8--10----10----8--10----8-----8-----3-3-|
[ Tab from: http://www.guitartabs.cc/tabs/j/jet/rollover_dj_tab_ver_5.html ]
Verse (0:15, 1:12)
  ...Rhymes goin' 'round in my head...
  ...Know that you think you're a star...
     D5                      G/B  Csus2
e-------------------------------------------|
B---------------3---------3-------3---------|
G-2----4--2-----2---------0-------0---------|
D-0----0--3--4--0---------0-------X----X--X-|
A--------------------2----2----3--3----X--X-|
E-------------------------------------------| (X 2)
     D5                      G/B  Csus2      A5
e----------------------------------------------------------|
B---------------3---------3-------3------------------------|
G-2----4--2-----2---------0-------0-----------2------------|
D-0----0--3--4--0---------0-------X-----------2------------|
A--------------------2----2----3--3----X------0------0-0-0-|
E-----------------------------------------0----------------|
Chorus (0:43, 1:27, 2:27)
  Hey    Roll over...
  D                  C                  F                  G
e-2----2----2-2-2----0----0----0-0-0-----------------------3----3----3-3-3-|
B-3----3----3-2-3----1----1----1-1-1-----------------------3----3----3-3-3-|
G-2----2----2-3-2----0----0----0-0-0----2----2----2-2-2----0----0----0-0-0-|
D-0----0----0-0-0----2----2----2-2-2----3----3----3-3-3----0----0----0-0-0-|
A--------------------3----3----3-3-3----3----3----3-3-3----2----2----2-2-2-|
E---------------------------------------1----1----1-1-1----3----3----3-3-3-|
                                                                        (X 3)
Bridge (2:03)
e------------------------------------------|
B------------------------------------------|
G------------------------------------------|
D------------------------------------------|
A-12----14----12-14----10---12-12-10-10-12-|
E-12----12----12-12----8----8--8--8--8--8--|

e-------------------------------------------------|
B-------------------------------------------------|
G-------------------------------------------------|
D-12----14----12-14----12----12--14----15----14-0-|
A-10----10----10-10----10----10--10-10-10-10-10-0-|
E-------------------------------------------------|

Outro (3:03)
   C  D     D     C  D     C     C     G  G
e-------------------------------------------|
B-------------------------------------12-12-|
G-9--11----11----9--11----9-----9-----12-12-|
D-10-12----12----10-12----10----10----12-12-|
A-10-12----12----10-12----10----10----10-10-|
E-8--10----10----8--10----8-----8-----------|
  C  D     D     C  D     C     C     A
e---------------------------------------5-|
B---------------------------------------5-|
G-9--11----11----9--11----9-----9-----6-6-|
D-10-12----12----10-12----10----10----7-7-|
A-10-12----12----10-12----10----10----7-7-|
E-8--10----10----8--10----8-----8-----5-5-|

Well that about it... I'm sure it won't hurt to look up the lyrics on your own.  The 
goes......

Intro (X 2)
Verse 1
Chorus
Intro (Yes, again, but only once this time)
Verse 2
Chorus
Bridge
Solo (Which I have still yet to figure out)
Chorus
Outro

This is a pretty simple song to learn.  Um... well... Jet kicks ass.

-Landon
Comments