Jet - Rollover Dj Chords & Tabs

 

Rollover Dj Chords & Tabs

Jet Chords & Tabs

Version: 2 Type: Tab 0 ratings
1 star 2 stars 3 stars 4 stars 5 stars
comments

Rollover Dj Tab

-------------------------------------------------------------------------------
			rollover D.J - Jet
-------------------------------------------------------------------------------
Tabbed by: Jay	
Email: jay_maths@hotmail.com

Just been listening to this album and this tune sticks in my head!!
If any of this is wrong(and it probably is) then work it out for yerself!!
But it sounds ok to me

Tuning:

 intro

e|---------------------------------------------------------------------------|
B|---------------------------------------------------------------------------|
G|---8--10-10-8-10-10-8-8--10---10-------------------------------------------|
D|---8--10-10-8-10-10-8-8--8----8--------------------------------------------|
A|---6--8--8--8-8--8--8-8----------------------------------------------------|
E|---------------------------------------------------------------------------|
  
 verse

e|---------------------------------------------------------------------------|
B|---------------------------------------------------------------------------|
G|---10-10--------------7--7--8--8--------10-10--------------7--7--8--8------|
D|---10-10----H---8-----7--7--8--8--------10-10----H---8-----7--7--8--8------|
A|---8--8---8--10-------5--5--6--6--------8--8---8--10-------5--5--6--6------|
E|---------------------------------------------------------------------------|
[ Tab from: http://www.guitartabs.cc/tabs/j/jet/rollover_dj_tab_ver_2.html ]
e|---------------------------------------------------------------------------|
B|---------------------------------------------------------------------------|
G|---10-10--------------7--7--8--8--------5--5-------------------------------|
D|---10-10----H---8-----7--7--8--8--------5--5-------------------------------|
A|---8--8---8--10-------5--5--6--6--------3--3-------------------------------|
E|---------------------------------------------------------------------------|

 chorus

e|---------------------------------------------------------------------------|
B|---------------------------------------------------------------------------|
G|--------------------------------------10-12--10-10-12----10-12--10-10-12---|
D|---10-12--10-10-12----8-10--8-8-10----8--8---8--8--8-----8--8---8--8--8----|
A|---8--8---8--8--8-----6-6---6-6-6------------------------------------------|
E|---------------------------------------------------------------------------|

e|---------------------------------------------------------------------------|
B|---------------------------------------------------------------------------|
G|--------------------------------------10-12--10-10-12----10-12--10-10-12---|
D|---10-12--10-10-12----8-10--8-8-10----8--8---8--8--8-----8--8---8--8--8----|
A|---8--8---8--8--8-----6-6---6-6-6------------------------------------------|
E|---------------------------------------------------------------------------|

e|---------------------------------------------------------------------------|
B|---------------------------------------------------------------------------|
G|----------------------------------------1010101010101010------10-----------|
D|---1010101010101010---8-8-8-8-8-8-8-8---8-8-8-8-8-8-8-8-------8------------|
A|---8-8-8-8-8-8-8-8----6-6-6-6-6-6-6-6--------------------------------------|
E|---------------------------------------------------------------------------|

Back to the intro


that's all for now
Comments