Jet - Radio Song Chords & Tabs

 

Radio Song Chords & Tabs

Jet Chords & Tabs

Version: 1 Type: Tab 0 ratings
1 star 2 stars 3 stars 4 stars 5 stars
comments

Radio Song Tab

   
For some reason, I can't register (screwy computer) so if you have any
corrections, please email me at mr_doom_gloom@yahoo.com

Radio Song
Jet


The verses are chords.  The strum is v v  v^v (down down down up down)

C
Take a look
C
At what I took
F                        F
A leaf out of everybody's book
C                  C           F
We see what you can't see
F                                        Dm
I'm caught in a trap of my own
Dm                    G             G
Like everybody I know
C
This won't be played on your radio            tonight
E|----------------------------------------3---8h10----------------------------|
A|----------------------------------------------------10----------------------|
D|----------------------------------------------------------------------------|
G|----------------------------------------------------------------------------|
B|--------------------------------------------------------3333 etc...---------|
e|----------------------------------------------------------------------------|

C                                        Dm
This won't be played on your radio tonight
B|--------------------------------------------------------3333 etc...-------|

C
Do you all know
C
Of the emperor's clothes
F                        F
Walking down an empty road
C                  C            F
We see what you can't see
F                                Dm
That's not how I wanna be
Dm                                               G            G
Anyhow, everytime, the same dream

C
This won't be played on your radio            tonight
E|----------------------------------------3---8h10----------------------------|
A|----------------------------------------------------10----------------------|
D|----------------------------------------------------------------------------|
G|----------------------------------------------------------------------------|
B|--------------------------------------------------------3333 etc...---------|
e|----------------------------------------------------------------------------|

1st SOLO
[ Tab from: http://www.guitartabs.cc/tabs/j/jet/radio_song_tab.html ]
E|---------------------------------------3------------------12/3---|----------------------------------------3~~~--|
A|3-2-0---2-3--3/5--5--7---5---3----2-3--3/5--7-----------|--3-2-0---2-3--3/5--5--7---5---3-----------------------|
D|--------------------------------------------------------------------|-------------------------------------------|
G|--------------------------------------------------------------------|-------------------------------------------|
B|--------------------------------------------------------------------|---------------------------------0--1--0---|
e|---------------------------------------------------------------------|------------------------------------------|

C                                        Dm
This won't be played on your radio Show
C                                        Dm
This won't be played on your radio tonight (oh no)
B|-----------------------------------------------3333 etc.------------------|
2ND SOLO
E|----------------------------------------------------------------------------|
A|----------------------------------------------------------------------------|
D|---55--7--------------------5-----------------------------------------------|
G|----------55-7^^-5--7--5-----5---5^^--3--5^^--------------------------------|
B|--------------------------------------------------------6---8^^vv--8--6--5--|
e|----------------------------------------------------------------------------|

E|----------------------------------------------------------------------------|
A|----------------------------------------------------------------------------|
D|---55--7--------------------5-----------------------------------------------|
G|----------55-7^^-5--7--5-----5---5^^--3--5^^--------------------------------|
B|--------------------------------------------------------6---8^^vv--8--6--5--|
e|-----------------------------------------------------------------8----------|

E|-----------------------------------------------------------------------------|
A|-----------------------------------------------------------------------------|
D|---55--7--------------------5------------------------------------------------|
G|----------55-7^^-5--7--5-----5---5^^--3--5^^---------------------------------|
B|--------------------------------------------------------6---8^^vv--8--~~~~~--|
e|-----------------------------------------------------------------8-----------|

__________
KEY
3/5=slide from 3 to 5
~~~~~=vibrato
^^=bend up
^^vv=bend up then back down (all on one strum of the string)
^^vv=bend up, play the eighth string of the e string and bend back down
  8

The tab is all messed up, because I made it in Word for a friend.  If you want, you can 
and paste it into Word in Times New Roman 12, and it'll come out fine.
Comments