Jet - Move On Chords & Tabs

 

Move On Chords & Tabs

Jet Chords & Tabs

Version: 2 Type: Tab 0 ratings
1 star 2 stars 3 stars 4 stars 5 stars
comments

Move On Tab

   
#----------------------------------PLEASE NOTE---------------------------------#
#This file is the author's own work and represents their interpretation of the #
#song. You may only use this file for private study, scholarship, or research. #
#------------------------------------------------------------------------------#

JET – Move On

Tabbed by Keir Alexander

I tried this in standard tuning but it didn’t quite sound right. The song reminds me a bit of the Rolling Stones’ “wild horses” which is played on an open G tuning – so I tried it on this song and it works.  It also means you can use harmonica in the scale of G and play along.  


Tuning: D G D G B D

Because of the tuning, I wasn’t sure about naming some of the chords

[Intro / Verse Chords]:
    Open G   G1
D|----0--------------------0---
B|----0--------------------1---
G|----0--0-2-0------0------0---
D|----0---------0-2--------2---
G|----0--------------------0---
D|----0--------------------0---


[Chorus Chords]:
    D/e  C/d   Am   G1  Open G   D    C
D|---7----5----2----0------0(5)--7----5---
B|---7----5----1----1------0-----7----5---
G|---9----7----2----0------0-----7----5---
D|---7----5----2----2------0-----7----5---
G|---7----5----0----0------0-----7----5---
D|---7----5----2----0------0(5)--7----5---


Short solo (played over intro chords)
D|-------------9----10-9---------------|--------9—10-9----/14—12--
B|---/8----10------------8-----5----3--|-/8—10---------8-----------




[Chorus with harmonica]

    G/d
D|---0---
B|---3---
G|---0---
D|---2---
G|---0---
D|---0---

*****************************************************************************************************************

Jet - Move On
=============

Key of C OR Am

When playing the C and Am chords you usually play them with the G on the 1st string.
You can make the strumming pattern interesting if you play around with this.

C:  x32013
Am: x02213


Intro 
=====

E ||--------10~~-10----------------------3---3--------3----------10--------------------------|
B ||--10/12---------12p10\8h10-8~~---3/5---5---5--3-0------10/12----12-10-----------10-10/13-|
G ||----------------------------------------------------------------------12-9-9h12----------|
D ||-----------------------------------------------------------------------------------------|
A ||-----------------------------------------------------------------------------------------|
E ||-----------------------------------------------------------------------------------------|


E ||--10b12-10p8-8-7~~---------10~~-10----------------------------------|
B ||---------------------10/12---------12p10\8h10-8~~--5\3/5---3\1------|
G ||--------------------------------------------------------------------|
D ||--------------------------------------------------------------------|
A ||--------------------------------------------------------------------|
E ||--------------------------------------------------------------------|

    "Rythm Riff"
E ||-3--------------3---3--3------------3--------------3---3-------3--|
B ||-3------------------1----1----------3------------------1-------1--|
G ||-0--0h2-0-----0-----0------0--------0--0h2-0-----0-----0--0-0--0--|
D ||-0--------0h2-------2--------0h2-0--0--------0h2-------2--2-2-----|
A ||-2------------------3---------------2------------------3----------|
E ||-3----------------------------------3-----------------------------|

[ Tab from: http://www.guitartabs.cc/tabs/j/jet/move_on_tab_ver_2.html ]
Verse
=====
(G C)    4x

Chorus
======

D C Am C
G D Am C     

"Solo"

Played with "Rythm Riff"

E ||------5-7---7B8r7-------------------5-7--7b8r7-------10b12r10--10~~-|
B ||--8~~-------------5~--3b5r3-----8~~------------5~~------------------|
G ||--------------------------------------------------------------------|

Verse 2
=======

(G C)    4x


Chorus
======

D C Am C
G D Am C     
G D C
         

Strumming Interlude
===================

(G C)    4x


Chorus
======

D C Am C
G D Am C     
G D C



NOTE:
=====
There are some really easy riffs in the scale of C, or Am pentatonic that are in the tune too.  They should be easy to figure out if you wanna play them that bad.  It's better to just improvise cos the riffs arent that good anyways....  This is a good tune to play easy solos to and would be fun to jam with another person on.  Kinda like "Pink Floyd - Wish You Were Here"

Eg. of easy Riff

e |--------3--|
B |--3p1-1~~~~|

Tabbed by Rockinroll_Mister 2003
greg_barker@primus.ca


************************************************************************************************************************

JET - Move On

tabbed by Trajko Skopelja

Intro

----10-----10----------------------------------------
-10b-----------10rb--8--8vb--------8--------------8--
-------------------------------7s9---9----7----------
--------------------------------------------7--9-----
-----------------------------------------------------
-----------------------------------------------------
-----------------------------------------------------

------10--------------------8-----12--10rb--8-7---
--10b----10rb--8-----8h10-------------------------
------------------9-------------------------------
--------------------------------------------------
--------------------------------------------------
--------------------------------------------------
--------------------------------------------------

-----10-------------------------------------------
-10b-----10rb---8--8----------------------8-------
-----------------------9s7s9---7s5-----4----------
--------------------------------------------------
--------------------------------------------------
--------------------------------------------------
--------------------------------------------------

then enter strumming
G, C, G, C   (hammer on 2nd fret and use ur pinky to hammer on the 3rd fret when playing C)

G - 320033
D - x00323 or x0032x
C - x32010 alt. x32013
Am7-x02010

*****************************************************************************************************************

Jet - Move on


Chords by: kristoffer__karlsson@hotmail.com
Lyrics from: http://www.lyrics007.com/Jet%20Lyrics/Move%20On%20Lyrics.html

Intro: G C9

   G   G G           C9 C9          G
e:-3---3-3-----------3--3-3---------3--I
B:-3---3-3-----------3--3-3---------3--I
G:-0---0-0-----------0--0-0---------0--I
D:-0---0-0--------0--2--2-2--0-2-0--0--I
A:-2---2------0-2----3--3-----------2--I
E:-3---3----3-----------------------3--I

Vers: G C9 G C9 

Chorus: D C9 Am C9 G D C9 C9 G 
 
Comments