Jet - Move On Chords & Tabs

 

Move On Chords & Tabs

Jet Chords & Tabs

Version: 1 Type: Tab 3 ratings
1 star 2 stars 3 stars 4 stars 5 stars
comments

Move On Tab

   
Jet - Move On
=============

Key of C OR Am

When playing the C and Am chords you usually play them with the G on the 1st string.
You can make the strumming pattern interesting if you play around with this.

C:  x32013
Am: x02213


Intro 
=====

E ||--------10~~-10----------------------3---3--------3----------10--------------------------|
B ||--10/12---------12p10\8h10-8~~---3/5---5---5--3-0------10/12----12-10-----------10-10/13-|
G ||----------------------------------------------------------------------12-9-9h12----------|
D ||-----------------------------------------------------------------------------------------|
A ||-----------------------------------------------------------------------------------------|
E ||-----------------------------------------------------------------------------------------|


E ||--10b12-10p8-8-7~~---------10~~-10----------------------------------|
B ||---------------------10/12---------12p10\8h10-8~~--5\3/5---3\1------|
G ||--------------------------------------------------------------------|
D ||--------------------------------------------------------------------|
A ||--------------------------------------------------------------------|
E ||--------------------------------------------------------------------|
[ Tab from: http://www.guitartabs.cc/tabs/j/jet/move_on_tab.html ]
    "Rythm Riff"
E ||-3--------------3---3--3------------3--------------3---3-------3--|
B ||-3------------------1----1----------3------------------1-------1--|
G ||-0--0h2-0-----0-----0------0--------0--0h2-0-----0-----0--0-0--0--|
D ||-0--------0h2-------2--------0h2-0--0--------0h2-------2--2-2-----|
A ||-2------------------3---------------2------------------3----------|
E ||-3----------------------------------3-----------------------------|


Verse
=====
(G C)    4x

Chorus
======

D C Am C
G D Am C     

"Solo"

Played with "Rythm Riff"

E ||------5-7---7B8r7-------------------5-7--7b8r7-------10b12r10--10~~-|
B ||--8~~-------------5~--3b5r3-----8~~------------5~~------------------|
G ||--------------------------------------------------------------------|

Verse 2
=======

(G C)    4x


Chorus
======

D C Am C
G D Am C     
G D C
         

Strumming Interlude
===================

(G C)    4x


Chorus
======

D C Am C
G D Am C     
G D C



NOTE:
=====
There are some really easy riffs in the scale of C, or Am pentatonic that are in the tune too.  They should be easy to figure out if you wanna play them that bad.  It's better to just improvise cos the riffs arent that good anyways....  This is a good tune to play easy solos to and would be fun to jam with another person on.  Kinda like "Pink Floyd - Wish You Were Here"

Eg. of easy Riff

e |--------3--|
B |--3p1-1~~~~|

Tabbed by Rockinroll_Mister 2003
greg_barker@primus.ca
Comments