Jet - Look What Youve Done Chords & Tabs

 

Look What Youve Done Chords & Tabs

Jet Chords & Tabs

Version: 1 Type: Tab 0 ratings
1 star 2 stars 3 stars 4 stars 5 stars
comments

Look What Youve Done Tab

   
Look What You've Done
Jet
Standard Tuning
This is from the Get Born album.
This is the piano part with the chords to be played behind it.  I have adapted the
piano part to be able to be played on a guitar.

Intro
   C                                
E|-3---3---3---3--|-3---3---3---3--|
B|-5---5---5---5--|-5---5---5---5--|
G|---5---5---5---5|---5---5---5---5|
D|----------------|----------------|
A|----------------|----------------|
E|-3--------------|----------------|

Verse 1 & 2
   C                G                Am      Am/G     F               
E|-3---3---3---3--|----------------|-0---0---0---0--|----------------|
B|-5---5---5---5--|-3---3---3---3--|-1---1---1---1--|-1---1---1---1-3|
G|---5---5---5---5|-4---4---4---4--|---2---2---0----|-2---2---2---2-4|
D|----------------|---5---5---5---5|----------------|---3---3---3----|
A|-3--------------|----------------|-0--------------|----------------|
E|----------------|-3--------------|---------3------|-1-----------1-3|

   C                G                Am     Am/G      D               
E|-3---3---3---3--|----------------|-0---0---0---0--|-5---5---5---5--|
B|-5---5---5---5--|-3---3---3---3--|-1---1---1---1--|-7---7---7---7--|
G|---5---5---5---5|-4---4---4---4--|---2---2---0---0|---7---7---7---7|
D|----------------|---5---5---5---5|----------------|----------------|
A|-3--------------|----------------|-0--------------|-5---5---5---5--|
E|----------------|-3--------------|---------3------|----------------|

Verse 3                                               D               
Exactly the same as Verse 1 & 2 except finish with- |-5---5---10~~---|
                                                    |-7---7----------|
                                                    |---7---7--------|
                                                    |----------------|
                                                    |-5---5----------|
                                                    |----------------|

Chorus 1
   F                G                C      C/B       Am     Am/G     
E|----------------|----------------|-3---3---3---3--|-0---0---0---0--|
B|-1---1---1---1--|-3---3---3---3--|-5---5---5---5--|-1---1---1---1--|
G|-2---2---2---2--|-4---4---4---4--|---5---5---4---4|---2---2---0---0|
D|---3---3---3---3|---5---5---5---5|----------------|----------------|
A|----------------|----------------|-3-------2------|-0-------3------|
E|-1--------------|-3--------------|----------------|----------------|

   F                G                C      C/B       Am     Am/G      D  
E|----------------|----------------|-3---3---3---3--|-0---0---0---0--|-5~|
B|-1---1---1---1--|-3---3---3---3--|-5---5---5---5--|-1---1---1---1--|-7~|
G|-2---2---2---2--|-4---4---4---4--|---5---5---4---4|---2---2---0---0|-7~|
D|---3---3---3---3|---5---5---5---5|----------------|----------------|---|
A|----------------|----------------|-3-------2------|-0-------3------|-5~|
E|-1--------------|-3--------------|----------------|----------------|---|

Chorus 2 & 3
Exactly the same as chorus 1 except don't play the last D chord just go straight into the bridges.
[ Tab from: http://www.guitartabs.cc/tabs/j/jet/look_what_youve_done_tab.html ]
Bridge 1
   F                G                G#      A#       F               
E|----------------|----------------|----------------|----------------|
B|-1---1---1---1--|-3---3---3---3--|-4---4---6---6--|-1---1---1---1--|
G|-2---2---2---2--|-4---4---4---4--|-5---5---7---7--|-2---2---2---2--|
D|---3---3---3---3|---5---5---5---5|---6---6---8---8|---3---3---3---3|
A|----------------|----------------|----------------|----------------|
E|-1--------------|-3--------------|-4-------6------|-1--------------|

   G#      A#       F                G#      A#      
E|----------------|----------------|----------------|
B|-4---4---6---6--|-1---1---1---1--|-4---4---6---6--|
G|-5---5---7---7--|-2---2---2---2--|-5---5---7---7--|
D|---6---6---8---8|---3---3---3---3|---6---6---8---8|
A|----------------|----------------|----------------|
E|-4-------6------|-1--------------|-4-------6------|

Bridge 2
   F                G                G#     A#        F               
E|----------------|----------------|----------------|----------------|
B|-1---1---1---1--|-3---3---3---3--|-4---4---6---6--|-1---1---1---1--|
G|-2---2---2---2--|-4---4---4---4--|-5---5---7---7--|-2---2---2---2--|
D|---3---3---3---3|---5---5---5---5|---6---6---8---8|---3---3---3---3|
A|----------------|----------------|----------------|----------------|
E|-1--------------|-3--------------|-4-------6------|-1--------------|

   G#      A#       F                G#               A#               C  
E|----------------|----------------|----------------|----------------|-3~|
B|-4---4---6---6--|-1---1---1---1--|-4---4---4---4--|-6---6---6---6--|-5~|
G|-5---5---7---7--|-2---2---2---2--|-5---5---5---5--|-7---7---7---7--|-5~|
D|---6---6---8---8|---3---3---3---3|---6---6---6---6|---8---8---8---8|---|
A|----------------|----------------|----------------|----------------|-3~|
E|-4-------6------|-1--------------|-4--------------|-6--------------|---|


Song Order: Intro
            Verse 1
            Chorus 1
            Verse 2
            Chorus 2
            Bridge 1
            Verse 3
            Chorus 3
            Bridge 2

Lyrics

Verse 1
Take my photo off the wall if it just won't sing for you,
'Cause all that's left has gone away and there's nothing there for you to prove

Chorus 1
Oh, look what you've done, you've made a fool of everyone,
Oh well, it seemed like such fun until you lose what you had won
Ooh oo

Verse 2
Give me back my point of view 'cause I just can't think for you,
I can hardly hear you say, what should I do? Well you choose

Chorus 2
Oh, look what you've done, you've made a fool of everyone,
Oh well, it seems like such fun until you lose what you had won,

Bridge 1
Oh, look what you've done, you've made a fool of everyone
A fool of everyone,
A fool of everyone

Verse 3
Take my photo of the wall if it just won't sing for you,
'Cause all that's left has gone away and there's nothing there for you to do

Chorus 3
Oh, look what you've done, you've made a fool of everyone,
Oh well, it seems like such fun until you lose what you had won,

Bridge 2
Oh, look what you've done, you've made a fool of everyone
A fool of everyone,
A fool of everyone

That's it if you have any problems with this tab....... Make your own.
Comments