Jet - Look What Youve Done Chords & Tabs

 

Look What Youve Done Chords & Tabs

Jet Chords & Tabs

Version: 1 Type: Bass Tab 0 ratings
1 star 2 stars 3 stars 4 stars 5 stars
comments

Look What Youve Done Bass Tab

Standard Tuning

1st Chorus
G|----------------|----------------|----------------|----------------|
D|----------------|----------------|----------------|----------------|
A|----------------|--------------2-|3-------2-------|----------------|
E|1-------------5-|3---------------|----------------|5-------3-------|

G|----------------|----------------|----------------|----------------|
D|----------------|----------------|----------------|----------------|
A|----------------|--------------2-|3-------2-------|----------------|
E|5---------------|3---------------|----------------|5-------3-------|

G|----------------|
D|----------------|
A|5~--------------|
E|----------------|

2nd Verse
G|----------------|----------------|----------------|----------------|
D|--------------2/|5---------------|7-------5-------|3-------------5-|
A|3---------------|----------------|----------------|----------------|
E|----------------|----------------|----------------|----------------|

G|----------------|----------------|----------------|----------------|
D|--------------2/|5---------------|7-------5-------|----------------|
A|3---------------|----------------|----------------|5---------------|
E|----------------|----------------|----------------|----------------|

2nd Chorus
G|----------------|----------------|----------------|----------------|
D|----------------|----------------|----------------|----------------|
A|----------------|----------------|3-------2-------|----------------|
E|1-------------5-|3---------------|----------------|5-------3-------|

G|----------------|----------------|----------------|----------------|
D|----------------|----------------|----------------|----------------|
A|----------------|--------------2-|3-------2-------|----------------|
E|1-------------5-|3---------------|----------------|5-------3-------|
[ Tab from: http://www.guitartabs.cc/tabs/j/jet/look_what_youve_done_btab.html ]
G|----------------|----------------|------------------|-------5--75-----|
D|----------------|----------------|-------1--------3-|3-3-5h7------753-|
A|----------------|----------------|----1h3--1-1-3h5-5|-----------------|
E|1-------------5-|3---------------|4-4---------------|-----------------|

G|------------------|-------5--75-----|------------------|--------------|
D|-------1--------3-|3-3-5h7------753-|-------1--------3-|--------------|
A|----1h3--1-1-3h5-5|-----------------|----1h3--1-1-3h5-5|3-------------|
E|4-4---------------|-----------------|4-4---------------|--------------|

3rd Verse (No Bass Part)

3rd Chorus
G|----------------|----------------|----------------|----------------|
D|----------------|----------------|----------------|----------------|
A|----------------|----------------|3-------2-------|----------------|
E|1-------------5-|3---------------|----------------|5-------3-------|

G|----------------|----------------|----------------|----------------|
D|----------------|----------------|----------------|----------------|
A|----------------|--------------2-|3-------2-------|----------------|
E|1-------------5-|3---------------|----------------|5-------3-------|

G|----------------|----------------|------------------|-------5--75-----|
D|----------------|----------------|-------1--------3-|3-3-5h7------753-|
A|----------------|----------------|----1h3--1-1-3h5-5|-----------------|
E|1-------------5-|3---------------|4-4---------------|-----------------|

G|------------------|-------5--75-----|----------------|----------------|
D|-------1--------3-|3-3-5h7------753-|----------------|----------------|
A|----1h3--1-1-3h5-5|-----------------|----------------|1-1-1-1-1-1-1-1-|
E|4-4---------------|-----------------|4-4-4-4-4-4-4-4-|----------------|

G|----------------|
D|----------------|
A|3~--------------|
E|----------------|
Comments