Jet - Lazy Gun Chords & Tabs

 

Lazy Gun Chords & Tabs

Jet Chords & Tabs

Version: 3 Type: Tab 0 ratings
1 star 2 stars 3 stars 4 stars 5 stars
comments

Lazy Gun Tab

   
Song: "Lazy Gun" 
Band: Jet
Album: Get Born

Intro / Verse
Guitar 1:
e|--------------|----------------------|
B|--------------|----------------------|
G|-4/6-X--------|-4/7-77777777/8888888-|
D|-5/7-X--------|-5/8-88888888/9999999-|
A|-5/7-X--------|-5/8-88888888/9999999-|
E|-3/5-X-----X2-|-3/6-55555555/7777777-|
Guitar 2:
e|-------12-----|-------12--------15---|
B---X--X-14-----|-----X-14------X-17---|
G|--14-X-14-----|--14-X-14---17-X-17---|
D|--14-X-14-----|--14-X-14---17-X-17---|
A|--12-X-12-----|--12-X-12---15-X-15---|
E|-----x--------|-----X---------X------|
[ Tab from: http://www.guitartabs.cc/tabs/j/jet/lazy_gun_tab_ver_3.html ]
Chorus:
   D               B               A               G
e|-----2-------2-------2-------2-------2-------2-------2-------2---|
B|---3---3---3---3--3---3---3---3---3---3---3---3---3---3---3---3-|
G|-----------------------------------------------------------------|
D|-0-------0-------------------------------------------------------|
A|-----------------2-------2-------0-------0-----------------------|
E|-------------------------------------------------3-------3-------| X2

Well... That's about it... There's a little thingamajig at the end I can't get right...
But this is the main riff and the corrected chorus from everyone else.

- Landon
Comments