Jet - Lazy Gun Chords & Tabs

 

Lazy Gun Chords & Tabs

Jet Chords & Tabs

Version: 1 Type: Tab 0 ratings
1 star 2 stars 3 stars 4 stars 5 stars
comments

Lazy Gun Tab

hi i'm matt, and um ya i've been listening to this song and just kinda ran into how it's 
 i dont want to sound like a 13 year old kid but ya this is my frist tab. there was 
some freaky sliding in the back that i didn't know what to do with.

standard tuning

e---------------------------------------------------------------------|
 ---------------------------------------------------------------------|
 -------------------------------------5-5-5-5-5-5-5-5-  035500--------| can also
 -6/7-7-7-6/7-7-7-7/8-8-8-8-8-8-8-8-8-5-5-5-5-5-5-5-5-----------------|  be played as
 -6/7-7---6/7-7---7/8-8-8-8-8-8-8-8-8-3-3-3-3-3-3-3-3-  0-8-10-10-0-0-|
E-4/5-5---4/5-5---5/6-6-6-6-6-6-6-6-6---------------------------------|

[ Tab from: http://www.guitartabs.cc/tabs/j/jet/lazy_gun_tab.html ]
Chorus
e-----2-------2-------2-------2------2-------2-------2-------2---|
 ---3---3---3---3---3---3---3---3--3---3---3---3---3---3---3---3-|
 ----------------------------------------------------------------|
 -0-------0------------------------------------------------------|
 -----------------2-------2-------0------0-----------------------|
E------------------------------------------------3-------3-------|
other guitar just strums the chords above

interclude
e---------------------3-----3---|
 -----4-------4-------3-----3---|
 -----4-------4-------0-----0---|     repeat a few times till
 -----4-------4-------0-----0---|     the last time do this the
 -2-2-2-2-2-2-2-2-----2-----2---|     second part listed below
E-----------------3-3-3-3-3-3-3-|

e-----------------3~
 -----2-------2---3~
 -----2-------2---0~
 -----2-------2---0~
 -0-0-0-0-0-0-0-0-2~
E-----------------3~


do the chorus as the ending and end with a nice solid G
Comments