Jet - Lazy Gun Chords & Tabs

 

Lazy Gun Chords & Tabs

Jet Chords & Tabs

Version: 1 Type: Bass Tab 0 ratings
1 star 2 stars 3 stars 4 stars 5 stars
comments

Lazy Gun Bass Tab

   
-------------------------------------------------------------------------------
			     LAZY GUN - Jet
-------------------------------------------------------------------------------

Tabbed By : Rick
e-mail: dm_rick@hotmail.com

Tuning: Standard (EADG)

verse:
G|------------------|---------------------|
D|---------X a bunch|------------0-3-3-3-3|
A|-0-0--------------|--0-0----------------|
E|-----1H3-1--------|------1H3-1----------|

G|--2~--------0~----|------------------|
D|------------------|---3~-------0~----|
A|------------------|------------------|
E|------------------|------------------|
chorus: listen closely 

G|------------------|------------------|------------------|
D|------0-----------|--0---------------|------------------|
A|--0-2-------------|----2----0~-------|----2-------------|
E|------------------|------------------|-------3~--3-2-1-0|
[ Tab from: http://www.guitartabs.cc/tabs/j/jet/lazy_gun_btab.html ]
Chorus
G|------------------|------------------|------------------|
D|--------0----0----|------------------|------------------|
A|--0--2----------2-|--2--0------------|-2----------------|
E|------------------|---------5\0------|----3-------------|

G|------------------|------------------|------------------|
D|-----0-0-0-0-0-0--|--0---------------|------------------|
A|-0-2--------------|----2---2--0------|2-----------------|
E|------------------|------------------|--3-4---3~--------|

G|--------------------------------|-----------------------|
D|--------------------------------|----------0~-----------|
A|--------------------------------|--0~-------------------|
E|---2--2--22-2--2---3--3--33-3-3-|-----------------------|


the first and second chorus' have little changes to them at the end but thats basically it

[www.desperate-measures.tk]

| \  slide down
| H  hammer-on
| ~  vibrato
===============================================================================
Comments