Jet - Last Chance Chords & Tabs

 

Last Chance Chords & Tabs

Jet Chords & Tabs

Version: 4 Type: Tab 0 ratings
1 star 2 stars 3 stars 4 stars 5 stars
comments

Last Chance Tab

   
 "Last Chance" by Jet

 Standard Tuning (E A D G B E)


 Intro:

 Gtr.1
|-------------------|
|-------------------|
|-11-11-11-11-11----| x3
|-9--9--9--9--9-----|
|-7--7--7--7--7-----|
|-------------------|

 Gtr.1
|------------------------|------------------|-----------------|              
|------------------------|------------------|-----------------|              
|-11-11-11-11-11-11-11p9-|-9----------------|-9\--------------|             
|-9--9--9--9--9--9--9----|-9----------------|-9\--------------|              
|-7--7--7--7--7--7--7----|-7----------------|-7\--------------|              
|------------------------|------------------|-----------------|              
|Gtr.2
|------------------------|------------------|-----------------|              
|------------------------|------------------|-----------------|              
|------------------------|------------------|-----------------|              
|------------------------|------------------|---7-------------|              
|------------------------|-2--5-7-5-7-5p2-2-|-2-5-7-5-7-5p2-2-|              
|------------------------|-0--3-5-3-5-3p0-0-|-0---5-3-5-3p0-0-|

(Gtr.2 repeats its riff)

 Verse:
                    __________________  _____________________
 Gtr.2              |1.                 |2.
|------------------|------------------||---------------------|
|------------------|-----------------o||---------------------|
|------------------|------------------||---------------------|
|------------------|---7--------------||---7-----------------|
|-2--5-7-5-7-5p2---|-2-5-7-5-7-5p2---o||-2-5-7-5-7-7---------|
|-0--3-5-3-5-3p0---|-0---5-3-5-3p0----||-0---5-3-5-5---------|
|Gtr.1 
|------------------|------------------||---------------------|
|------------------|------------------||---------------------|
|------------------|------------------||---------------------|
|------------------|------------------||---------------------|
|------------------|------------------||---------7-7---------|
|------------------|------------------||---------5-5---------|
[ Tab from: http://www.guitartabs.cc/tabs/j/jet/last_chance_tab_ver_4.html ]
 Chorus:
                                      _____________________
 Gtrs.1 & 2                           |1.
|-----------------|------------------|---------------------|                 
|-----------------|o-----------------|--------------------o|                 
|-----------------|------------------|---------------------|                 
|-----------------|------------------|---------------------|                 
|-9-9-7-9--9-9--9-|o-9-9-7-9--9-9--9-|-7-7-5-7--5-7-5-7-7-o|                
|-7-7-5-7--7-7--7-|--7-7-5-7--7-7--7-|-5-5-3-5--3-5-3-0-5--|
 ______________________
 |2.
|----------------------|   
|----------------------|   
|----------------------|   
|----------7-----------|     
|-7-7-5-7--5-7-5-7-5p2-|  
|-5-5-3-5----5-3-5-3p0-| 


 Solo/Bridge:
 Gtr.1
|-----------|--------------------|                                           
|-----------|-------------------o|                                           
|-----------|--------------------|                                           
|-----------|--------------------|                                           
|-9-9--9----|-9-9--9------------o|                                           
|-7-7--7----|-7-7--7-------------|                                           
|Gtr.2
|--------7--|--------------------|                                           
|--------7--|-------------------o|                                           
|-----------|------9-(9)b11r9p7--|                                           
|-----------|--------------------|                                           
|-----------|-------------------o|                                           
|-----------|--------------------|

 Ending:

 Gtr.1
|-----------------|--------------------|-------------------|
|-----------------|--------------------|-------------------|
|-----------------|--------------------|-------------------|
|-----------------|--------------------|----------------9--|
|-9-9-7-9--9-9--9-|-7-7-5-7--5-7-5-7-7-|-9-9-7-9--9--9--9--|
|-7-7-5-7--7-7--7-|-5-5-3-5--3-5-3-0-5-|-7-7-5-7--7--7--7--|
|Gtr.2
|-----------------|--------------------|-------------------|
|-----------------|--------------------|----------------12-|
|-----------------|--------------------|----------------11-|
|-----------------|--------------------|----------------9--|
|-9-9-7-9--9-9--9-|-7-7-5-7--5-7-5-7-7-|-9-9-7-9--9--9-----|
|-7-7-5-7--7-7--7-|-5-5-3-5--3-5-3-0-5-|-7-7-5-7--7--7-----|

And that's it.
Pretty simple. Pretty fun. Pretty good.

-Landon Boyte
Comments