Jet - Last Chance Chords & Tabs

 

Last Chance Chords & Tabs

Jet Chords & Tabs

Version: 3 Type: Tab 0 ratings
1 star 2 stars 3 stars 4 stars 5 stars
comments

Last Chance Tab

the solo can be tough to read but learn to deal with it by spacing it urself if u cant
read it, i do it close together because thats what i believe it should be. (remember when
its just somehting like 16b16 its half bend and 16b16.5 is quarter so watch out for
those.)

this is pretty accurate.

Standard Tuning

Intro 

|-------------------------------------------------------|
|-7-7-7-7-7--7-7-7-7-7--7-7-7-7-7--7-7-7-7-7-7-7---0----|
|-7-7-7-7-7--7-7-7-7-7--7-7-7-7-7--7-7-7-7-7-7-7--11----|
|-x-x-x-x-x--x-x-x-x-x--x-x-x-x-x--x-x-x-x-x-x-x--12----|
|-5-5-5-5-5--5-5-5-5-5--5-5-5-5-5--5-5-5-5-5-5-5---x----|
|--------------------------------------------------9----|


|-----------------------------------------------------------|
|-----------------------------------------------------------|
|-------2------2-------2------2-------2------2-------2------|
|-2-3-2-2-2--7-2-2-3-2-2-2--7-2-2-3-2-2-2--7-2-2-3-2-2-2----| X8 (each set)
|-2-3-2-0-2--7-0-2-3-2-0-2--7-0-2-3-2-0-2--7-0-2-3-2-0-2----|
|-0-1-0---0--5---0-1-0---0--5---0-1-0---0--5---0-1-0---0----|

Chorus

|------------------------------------------------------|
|------------------------------------------------------|
|------------------------------------------------------| 
|-7-7-7-7--7-7-9--7-7-7-7--7-7-9--6-6-6-6---6-6-7-9----|
|-7-7-7-7--7-7-9--7-7-7-7--7-7-9--6-6-6-6---6-6-7-9----|
|-5-5-5-5--5-5-7--5-5-5-5--5-5-7--4-4-4-4---4-4-5-7----|

Verse

Chorus
[ Tab from: http://www.guitartabs.cc/tabs/j/jet/last_chance_tab_ver_3.html ]
SOLO
~~~~~                                                               ~~~~~
|-------12----12---------------------------------------------------------------|
|-16b17----13----16b17-17b17.5-12-13-15b15.5-16b16.5-17b17.5-15b15.5--18b19----|
|------------------------------------------------------------------------------|
|------------------------------------------------------------------------------|
|------------------------------------------------------------------------------|
|------------------------------------------------------------------------------|

                                                                  
Post-Chorus

|----------------|
|----------------|
|---------7------|  
|-0-7-7-7-7-7----|  X4
|-0-7-7-7-5-7----|
|-0-5-5-5---5----|

Chorus

Outro
|------0----|
|-4-4--1----|
|-5-5--0----|
|-5-5--2----|
|-3-3--3----|
|-----------|


Tablature Legend
----------------
 h   - hammer-on
 p   - pull-off
 b   - bend
 pb  - pre-bend
 r   - bend release (if no number after the r, then release immediately)
 /\  - slide into or out of (from/to "nowhere")
 s   - legato slide
 S   - shift slide
  - natural harmonic
[n]  - artificial harmonic
n(n) - tapped harmonic
 ~   - vibrato
 tr  - trill
 T   - tap
 TP  - trem. picking
 PM  - palm muting
\n/  - tremolo bar dip; n = amount to dip
 \n  - tremolo bar down
 n/  - tremolo bar up
/n\  - tremolo bar inverted dip
 =   - hold bend; also acts as connecting device for hammers/pulls
 <>  - volume swell (louder/softer)
 x   - on rhythm slash represents muted slash
 o   - on rhythm slash represents single note slash
Comments